  0
SECTION
  2
HEADER
  9
$ACADVER
  1
AC1015
  9
$ACADMAINTVER
 70
     6
  9
$DWGCODEPAGE
  3
ANSI_1252
  9
$INSBASE
 10
0.0
 20
0.0
 30
0.0
  9
$EXTMIN
 10
-200.1627579492
 20
-106.3065903607
 30
0.0
  9
$EXTMAX
 10
200.1628926456
 20
227.3137930189
 30
0.0
  9
$LIMMIN
 10
0.0
 20
0.0
  9
$LIMMAX
 10
420.0
 20
297.0
  9
$ORTHOMODE
 70
     0
  9
$REGENMODE
 70
     1
  9
$FILLMODE
 70
     1
  9
$QTEXTMODE
 70
     0
  9
$MIRRTEXT
 70
     1
  9
$LTSCALE
 40
1.0
  9
$ATTMODE
 70
     1
  9
$TEXTSIZE
 40
6.35
  9
$TRACEWID
 40
1.0
  9
$TEXTSTYLE
  7
Standard
  9
$CLAYER
  8
0
  9
$CELTYPE
  6
ByLayer
  9
$CECOLOR
 62
   256
  9
$CELTSCALE
 40
1.0
  9
$DISPSILH
 70
     0
  9
$DIMSCALE
 40
1.0
  9
$DIMASZ
 40
5.9944
  9
$DIMEXO
 40
0.0
  9
$DIMDLI
 40
3.75
  9
$DIMRND
 40
0.0
  9
$DIMDLE
 40
0.0
  9
$DIMEXE
 40
0.9906
  9
$DIMTP
 40
0.0
  9
$DIMTM
 40
0.0
  9
$DIMTXT
 40
6.35
  9
$DIMCEN
 40
2.5
  9
$DIMTSZ
 40
0.0
  9
$DIMTOL
 70
     0
  9
$DIMLIM
 70
     0
  9
$DIMTIH
 70
     1
  9
$DIMTOH
 70
     1
  9
$DIMSE1
 70
     0
  9
$DIMSE2
 70
     0
  9
$DIMTAD
 70
     1
  9
$DIMZIN
 70
     1
  9
$DIMBLK
  1

  9
$DIMASO
 70
     1
  9
$DIMSHO
 70
     1
  9
$DIMPOST
  1

  9
$DIMAPOST
  1

  9
$DIMALT
 70
     0
  9
$DIMALTD
 70
     3
  9
$DIMALTF
 40
0.0393700787
  9
$DIMLFAC
 40
1.0
  9
$DIMTOFL
 70
     1
  9
$DIMTVP
 40
0.0
  9
$DIMTIX
 70
     0
  9
$DIMSOXD
 70
     0
  9
$DIMSAH
 70
     0
  9
$DIMBLK1
  1

  9
$DIMBLK2
  1

  9
$DIMSTYLE
  2
ISO-25
  9
$DIMCLRD
 70
     0
  9
$DIMCLRE
 70
     0
  9
$DIMCLRT
 70
     0
  9
$DIMTFAC
 40
1.0
  9
$DIMGAP
 40
1.524
  9
$DIMJUST
 70
     0
  9
$DIMSD1
 70
     0
  9
$DIMSD2
 70
     0
  9
$DIMTOLJ
 70
     0
  9
$DIMTZIN
 70
     1
  9
$DIMALTZ
 70
     0
  9
$DIMALTTZ
 70
     0
  9
$DIMUPT
 70
     0
  9
$DIMDEC
 70
     2
  9
$DIMTDEC
 70
     2
  9
$DIMALTU
 70
     2
  9
$DIMALTTD
 70
     3
  9
$DIMTXSTY
  7
Standard
  9
$DIMAUNIT
 70
     0
  9
$DIMADEC
 70
     2
  9
$DIMALTRND
 40
0.0
  9
$DIMAZIN
 70
     0
  9
$DIMDSEP
 70
    44
  9
$DIMATFIT
 70
     3
  9
$DIMFRAC
 70
     0
  9
$DIMLDRBLK
  1

  9
$DIMLUNIT
 70
     2
  9
$DIMLWD
 70
    -2
  9
$DIMLWE
 70
    -2
  9
$DIMTMOVE
 70
     0
  9
$LUNITS
 70
     2
  9
$LUPREC
 70
     2
  9
$SKETCHINC
 40
1.0
  9
$FILLETRAD
 40
0.0
  9
$AUNITS
 70
     0
  9
$AUPREC
 70
     2
  9
$MENU
  1
.
  9
$ELEVATION
 40
0.0
  9
$PELEVATION
 40
0.0
  9
$THICKNESS
 40
0.0
  9
$LIMCHECK
 70
     0
  9
$CHAMFERA
 40
0.0
  9
$CHAMFERB
 40
0.0
  9
$CHAMFERC
 40
0.0
  9
$CHAMFERD
 40
0.0
  9
$SKPOLY
 70
     0
  9
$TDCREATE
 40
2460446.559028727
  9
$TDUCREATE
 40
2460446.809028727
  9
$TDUPDATE
 40
2460446.559056238
  9
$TDUUPDATE
 40
2460446.809056238
  9
$TDINDWG
 40
0.0000000116
  9
$TDUSRTIMER
 40
0.0000000116
  9
$USRTIMER
 70
     1
  9
$ANGBASE
 50
0.0
  9
$ANGDIR
 70
     0
  9
$PDMODE
 70
     0
  9
$PDSIZE
 40
-1.0
  9
$PLINEWID
 40
0.0
  9
$SPLFRAME
 70
     0
  9
$SPLINETYPE
 70
     6
  9
$SPLINESEGS
 70
     8
  9
$HANDSEED
  5
99
  9
$SURFTAB1
 70
     6
  9
$SURFTAB2
 70
     6
  9
$SURFTYPE
 70
     6
  9
$SURFU
 70
     6
  9
$SURFV
 70
     6
  9
$UCSBASE
  2

  9
$UCSNAME
  2

  9
$UCSORG
 10
0.0
 20
0.0
 30
0.0
  9
$UCSXDIR
 10
1.0
 20
0.0
 30
0.0
  9
$UCSYDIR
 10
0.0
 20
1.0
 30
0.0
  9
$UCSORTHOREF
  2

  9
$UCSORTHOVIEW
 70
     0
  9
$UCSORGTOP
 10
0.0
 20
0.0
 30
0.0
  9
$UCSORGBOTTOM
 10
0.0
 20
0.0
 30
0.0
  9
$UCSORGLEFT
 10
0.0
 20
0.0
 30
0.0
  9
$UCSORGRIGHT
 10
0.0
 20
0.0
 30
0.0
  9
$UCSORGFRONT
 10
0.0
 20
0.0
 30
0.0
  9
$UCSORGBACK
 10
0.0
 20
0.0
 30
0.0
  9
$PUCSBASE
  2

  9
$PUCSNAME
  2

  9
$PUCSORG
 10
0.0
 20
0.0
 30
0.0
  9
$PUCSXDIR
 10
1.0
 20
0.0
 30
0.0
  9
$PUCSYDIR
 10
0.0
 20
1.0
 30
0.0
  9
$PUCSORTHOREF
  2

  9
$PUCSORTHOVIEW
 70
     0
  9
$PUCSORGTOP
 10
0.0
 20
0.0
 30
0.0
  9
$PUCSORGBOTTOM
 10
0.0
 20
0.0
 30
0.0
  9
$PUCSORGLEFT
 10
0.0
 20
0.0
 30
0.0
  9
$PUCSORGRIGHT
 10
0.0
 20
0.0
 30
0.0
  9
$PUCSORGFRONT
 10
0.0
 20
0.0
 30
0.0
  9
$PUCSORGBACK
 10
0.0
 20
0.0
 30
0.0
  9
$USERI1
 70
     0
  9
$USERI2
 70
     0
  9
$USERI3
 70
     0
  9
$USERI4
 70
     0
  9
$USERI5
 70
     0
  9
$USERR1
 40
0.0
  9
$USERR2
 40
0.0
  9
$USERR3
 40
0.0
  9
$USERR4
 40
0.0
  9
$USERR5
 40
0.0
  9
$WORLDVIEW
 70
     1
  9
$SHADEDGE
 70
     3
  9
$SHADEDIF
 70
    70
  9
$TILEMODE
 70
     1
  9
$MAXACTVP
 70
    64
  9
$PINSBASE
 10
0.0
 20
0.0
 30
0.0
  9
$PLIMCHECK
 70
     0
  9
$PEXTMIN
 10
1.0000000000E+20
 20
1.0000000000E+20
 30
1.0000000000E+20
  9
$PEXTMAX
 10
-1.0000000000E+20
 20
-1.0000000000E+20
 30
-1.0000000000E+20
  9
$PLIMMIN
 10
0.0
 20
0.0
  9
$PLIMMAX
 10
420.0
 20
297.0
  9
$UNITMODE
 70
     0
  9
$VISRETAIN
 70
     1
  9
$PLINEGEN
 70
     0
  9
$PSLTSCALE
 70
     1
  9
$TREEDEPTH
 70
  3020
  9
$CMLSTYLE
  2
Standard
  9
$CMLJUST
 70
     0
  9
$CMLSCALE
 40
20.0
  9
$PROXYGRAPHICS
 70
     1
  9
$MEASUREMENT
 70
     1
  9
$CELWEIGHT
370
    -1
  9
$ENDCAPS
280
     0
  9
$JOINSTYLE
280
     0
  9
$LWDISPLAY
290
     1
  9
$INSUNITS
 70
     4
  9
$HYPERLINKBASE
  1

  9
$STYLESHEET
  1

  9
$XEDIT
290
     1
  9
$CEPSNTYPE
380
     0
  9
$PSTYLEMODE
290
     1
  9
$FINGERPRINTGUID
  2
{1a6b37e7-c66e-4257-bea9-65e4e8804530}
  9
$VERSIONGUID
  2
{FAEB1C32-E019-11D5-929B-00C0DF256EC4}
  9
$EXTNAMES
290
     1
  9
$PSVPSCALE
 40
0.0
  9
$OLESTARTUP
290
     0
  0
ENDSEC
  0
SECTION
  2
CLASSES
  0
CLASS
  1
ACDBDICTIONARYWDFLT
  2
AcDbDictionaryWithDefault
  3
ObjectDBX Classes
 90
        0
280
     0
281
     0
  0
CLASS
  1
VISUALSTYLE
  2
AcDbVisualStyle
  3
ObjectDBX Classes
 90
     4095
280
     0
281
     0
  0
CLASS
  1
MATERIAL
  2
AcDbMaterial
  3
ObjectDBX Classes
 90
     1153
280
     0
281
     0
  0
CLASS
  1
SCALE
  2
AcDbScale
  3
ObjectDBX Classes
 90
     1153
280
     0
281
     0
  0
CLASS
  1
TABLESTYLE
  2
AcDbTableStyle
  3
ObjectDBX Classes
 90
     4095
280
     0
281
     0
  0
CLASS
  1
MLEADERSTYLE
  2
AcDbMLeaderStyle
  3
ACDB_MLEADERSTYLE_CLASS
 90
     4095
280
     0
281
     0
  0
CLASS
  1
SUN
  2
AcDbSun
  3
SCENEOE
 90
     1153
280
     0
281
     0
  0
CLASS
  1
ACDBPLACEHOLDER
  2
AcDbPlaceHolder
  3
ObjectDBX Classes
 90
        0
280
     0
281
     0
  0
CLASS
  1
LAYOUT
  2
AcDbLayout
  3
ObjectDBX Classes
 90
        0
280
     0
281
     0
  0
ENDSEC
  0
SECTION
  2
TABLES
  0
TABLE
  2
VPORT
  5
8
330
0
100
AcDbSymbolTable
 70
     1
  0
VPORT
  5
29
330
8
100
AcDbSymbolTableRecord
100
AcDbViewportTableRecord
  2
*Active
 70
     0
 10
0.0
 20
0.0
 11
1.0
 21
1.0
 12
0.0000673482
 22
60.5036013291
 13
0.0
 23
0.0
 14
10.0
 24
10.0
 15
10.0
 25
10.0
 16
0.0
 26
0.0
 36
1.0
 17
0.0
 27
0.0
 37
0.0
 40
340.2927910472
 41
1.1999436202
 42
50.0
 43
0.0
 44
0.0
 50
0.0
 51
0.0
 71
     0
 72
   100
 73
     1
 74
     3
 75
     0
 76
     0
 77
     0
 78
     0
281
     0
 65
     1
110
0.0
120
0.0
130
0.0
111
1.0
121
0.0
131
0.0
112
0.0
122
1.0
132
0.0
 79
     0
146
0.0
  0
ENDTAB
  0
TABLE
  2
LTYPE
  5
5
330
0
100
AcDbSymbolTable
 70
     6
  0
LTYPE
  5
14
330
5
100
AcDbSymbolTableRecord
100
AcDbLinetypeTableRecord
  2
ByBlock
 70
     0
  3

 72
    65
 73
     0
 40
0.0
  0
LTYPE
  5
15
330
5
100
AcDbSymbolTableRecord
100
AcDbLinetypeTableRecord
  2
ByLayer
 70
     0
  3

 72
    65
 73
     0
 40
0.0
  0
LTYPE
  5
16
330
5
100
AcDbSymbolTableRecord
100
AcDbLinetypeTableRecord
  2
Continuous
 70
     0
  3
Solid line
 72
    65
 73
     0
 40
0.0
  0
LTYPE
  5
5E
330
5
100
AcDbSymbolTableRecord
100
AcDbLinetypeTableRecord
  2
HIDDEN
 70
     0
  3
Hidden __ __ __ __ __ __ __ __ __ __ __ __ __ __
 72
    65
 73
     2
 40
1.905
 49
1.27
 74
     0
 49
-0.635
 74
     0
  0
LTYPE
  5
5F
330
5
100
AcDbSymbolTableRecord
100
AcDbLinetypeTableRecord
  2
PHANTOM
 70
     0
  3
Phantom ______  __  __  ______  __  __  ______
 72
    65
 73
     6
 40
12.7
 49
6.35
 74
     0
 49
-1.27
 74
     0
 49
1.27
 74
     0
 49
-1.27
 74
     0
 49
1.27
 74
     0
 49
-1.27
 74
     0
  0
LTYPE
  5
60
330
5
100
AcDbSymbolTableRecord
100
AcDbLinetypeTableRecord
  2
CENTER
 70
     0
  3
Center ____ _ ____ _ ____ _ ____ _ ____ _ ____
 72
    65
 73
     4
 40
10.16
 49
6.35
 74
     0
 49
-1.27
 74
     0
 49
1.27
 74
     0
 49
-1.27
 74
     0
  0
LTYPE
  5
61
330
5
100
AcDbSymbolTableRecord
100
AcDbLinetypeTableRecord
  2
CENTERX2
 70
     0
  3
Center (2x) ________  __  ________  __  _____
 72
    65
 73
     4
 40
20.32
 49
12.7
 74
     0
 49
-2.54
 74
     0
 49
2.54
 74
     0
 49
-2.54
 74
     0
  0
LTYPE
  5
62
330
5
100
AcDbSymbolTableRecord
100
AcDbLinetypeTableRecord
  2
DOT2
 70
     0
  3
Dot (.5x) ........................................
 72
    65
 73
     2
 40
0.635
 49
0.0
 74
     0
 49
-0.635
 74
     0
  0
ENDTAB
  0
TABLE
  2
LAYER
  5
2
330
0
100
AcDbSymbolTable
 70
     1
  0
LAYER
  5
10
330
2
100
AcDbSymbolTableRecord
100
AcDbLayerTableRecord
  2
0
 70
     0
 62
     7
  6
Continuous
370
    -3
390
F
  0
ENDTAB
  0
TABLE
  2
STYLE
  5
3
330
0
100
AcDbSymbolTable
 70
     1
  0
STYLE
  5
11
330
3
100
AcDbSymbolTableRecord
100
AcDbTextStyleTableRecord
  2
Standard
 70
     0
 40
0.0
 41
1.0
 50
0.0
 71
     0
 42
6.35
  3
txt
  4

  0
ENDTAB
  0
TABLE
  2
VIEW
  5
6
330
0
100
AcDbSymbolTable
 70
     0
  0
ENDTAB
  0
TABLE
  2
UCS
  5
7
330
0
100
AcDbSymbolTable
 70
     0
  0
ENDTAB
  0
TABLE
  2
APPID
  5
9
330
0
100
AcDbSymbolTable
 70
     1
  0
APPID
  5
12
330
9
100
AcDbSymbolTableRecord
100
AcDbRegAppTableRecord
  2
ACAD
 70
     0
  0
ENDTAB
  0
TABLE
  2
DIMSTYLE
  5
A
330
0
100
AcDbSymbolTable
 70
     1
100
AcDbDimStyleTable
  0
DIMSTYLE
105
27
330
A
100
AcDbSymbolTableRecord
100
AcDbDimStyleTableRecord
  2
ISO-25
 70
     0
 41
2.5
 42
0.625
 43
3.75
 44
1.25
 73
     0
 74
     0
 77
     1
 78
     8
140
2.5
141
2.5
143
0.0393700787
147
0.625
171
     3
172
     1
178
     0
271
     2
272
     2
274
     3
278
    44
283
     0
284
     8
340
11
  0
ENDTAB
  0
TABLE
  2
BLOCK_RECORD
  5
1
330
0
100
AcDbSymbolTable
 70
     1
  0
BLOCK_RECORD
  5
1F
330
1
100
AcDbSymbolTableRecord
100
AcDbBlockTableRecord
  2
*Model_Space
340
22
  0
BLOCK_RECORD
  5
1B
330
1
100
AcDbSymbolTableRecord
100
AcDbBlockTableRecord
  2
*Paper_Space
340
1E
  0
BLOCK_RECORD
  5
23
330
1
100
AcDbSymbolTableRecord
100
AcDbBlockTableRecord
  2
*Paper_Space0
340
26
  0
ENDTAB
  0
ENDSEC
  0
SECTION
  2
BLOCKS
  0
BLOCK
  5
20
330
1F
100
AcDbEntity
  8
0
100
AcDbBlockBegin
  2
*Model_Space
 70
     0
 10
0.0
 20
0.0
 30
0.0
  3
*Model_Space
  1

  0
ENDBLK
  5
21
330
1F
100
AcDbEntity
  8
0
100
AcDbBlockEnd
  0
BLOCK
  5
1C
330
1B
100
AcDbEntity
 67
     1
  8
0
100
AcDbBlockBegin
  2
*Paper_Space
 70
     0
 10
0.0
 20
0.0
 30
0.0
  3
*Paper_Space
  1

  0
ENDBLK
  5
1D
330
1B
100
AcDbEntity
 67
     1
  8
0
100
AcDbBlockEnd
  0
BLOCK
  5
24
330
23
100
AcDbEntity
  8
0
100
AcDbBlockBegin
  2
*Paper_Space0
 70
     0
 10
0.0
 20
0.0
 30
0.0
  3
*Paper_Space0
  1

  0
ENDBLK
  5
25
330
23
100
AcDbEntity
  8
0
100
AcDbBlockEnd
  0
ENDSEC
  0
SECTION
  2
ENTITIES
  0
SPLINE
  5
63
330
1F
100
AcDbEntity
  8
0
  6
Continuous
 62
     7
370
    25
100
AcDbSpline
210
0.0
220
0.0
230
1.0
 70
     8
 71
     3
 72
    31
 73
    27
 74
     0
 42
0.00000001
 43
0.00000001
 40
0.0
 40
0.0
 40
0.0
 40
0.0
 40
0.0685210693062214
 40
0.1310535927500149
 40
0.1875886845878869
 40
0.238117010996728
 40
0.2875668997875864
 40
0.3294629252313538
 40
0.3637982996560467
 40
0.3905680072708
 40
0.4115257296864921
 40
0.4338828971514659
 40
0.4734159475464106
 40
0.5183315829579934
 40
0.5641850300877599
 40
0.5991683896003703
 40
0.6305234720758897
 40
0.6602479353933437
 40
0.6950612235594581
 40
0.7355095829472721
 40
0.7815941743756913
 40
0.830160334264047
 40
0.8784185637545702
 40
0.9228068635640706
 40
0.9633323528778913
 40
1.0
 40
1.0
 40
1.0
 40
1.0
 10
-140.6650697803133
 20
193.7739440668254
 30
0.0
 10
-143.1358107961614
 20
192.3039364168788
 30
0.0
 10
-147.8613571158584
 20
189.4923955894209
 30
0.0
 10
-154.1654746165675
 20
185.2145146174364
 30
0.0
 10
-159.5788389881914
 20
181.2091022961821
 30
0.0
 10
-164.305373988184
 20
177.3905060470001
 30
0.0
 10
-168.3620102920374
 20
173.8335432822878
 30
0.0
 10
-171.7656303082907
 20
170.6077801006739
 30
0.0
 10
-174.4236184135192
 20
167.9139918912438
 30
0.0
 10
-176.456766020963
 20
165.7356728456048
 30
0.0
 10
-178.1394914538918
 20
163.8499006268703
 30
0.0
 10
-180.0622614065357
 20
161.6031941039444
 30
0.0
 10
-182.4200988672063
 20
158.6731539009805
 30
0.0
 10
-185.0913898875901
 20
155.0459731852424
 30
0.0
 10
-187.4545437047171
 20
151.4951276625838
 30
0.0
 10
-189.3902570952875
 20
148.2926593300809
 30
0.0
 10
-190.9255861722637
 20
145.5289127269094
 30
0.0
 10
-192.3448938603711
 20
142.7532625585249
 30
0.0
 10
-193.7683859678581
 20
139.6948012007541
 30
0.0
 10
-195.2373727563997
 20
136.1357742340801
 30
0.0
 10
-196.6476051006915
 20
132.1427201916121
 30
0.0
 10
-197.8714878527025
 20
127.9019252127511
 30
0.0
 10
-198.8296045741746
 20
123.6482096115007
 30
0.0
 10
-199.5026262700308
 20
119.542685515776
 30
0.0
 10
-199.9317782665229
 20
115.7185166539395
 30
0.0
 10
-200.0379583447602
 20
113.215540194957
 30
0.0
 10
-200.0883951299455
 20
112.0265969573793
 30
0.0
  0
SPLINE
  5
64
330
1F
100
AcDbEntity
  8
0
  6
Continuous
 62
     7
370
    25
100
AcDbSpline
210
0.0
220
0.0
230
1.0
 70
     8
 71
     3
 72
    36
 73
    32
 74
     0
 42
0.00000001
 43
0.00000001
 40
0.0
 40
0.0
 40
0.0
 40
0.0
 40
0.0300654081779224
 40
0.0602780440752608
 40
0.0854700535747944
 40
0.110953036839151
 40
0.1374260053592125
 40
0.1645258348248112
 40
0.2257259432877233
 40
0.2849999126017813
 40
0.3391896446179786
 40
0.388588052420797
 40
0.4340351724274644
 40
0.4800859381232057
 40
0.5154016390000349
 40
0.5510177265380917
 40
0.5878425480685547
 40
0.6301660470295698
 40
0.6779645504766203
 40
0.7247494017398761
 40
0.7571959765761387
 40
0.7904451898949344
 40
0.8249218758499176
 40
0.8568329692028073
 40
0.8724236796524967
 40
0.8864763973436304
 40
0.9009279257438478
 40
0.9161255168830507
 40
0.936965049721757
 40
0.9667744634083238
 40
1.0
 40
1.0
 40
1.0
 40
1.0
 10
-200.0743078591984
 20
112.0612204462013
 30
0.0
 10
-200.1052020295018
 20
110.7757216315503
 30
0.0
 10
-200.1671416562048
 20
108.1984290250548
 30
0.0
 10
-200.2004969887966
 20
104.5652963795813
 30
0.0
 10
-200.2064417355343
 20
101.1508634671591
 30
0.0
 10
-200.1867028161524
 20
97.9111414408205
 30
0.0
 10
-200.1426282855619
 20
94.60738412035535
 30
0.0
 10
-200.0444640404583
 20
89.8328813725574
 30
0.0
 10
-199.8497757615973
 20
83.73022213289904
 30
0.0
 10
-199.5201451843236
 20
76.57107327269044
 30
0.0
 10
-199.1314450995833
 20
69.93024768802242
 30
0.0
 10
-198.7103425602039
 20
63.87160957145885
 30
0.0
 10
-198.2571189576863
 20
58.15906248220361
 30
0.0
 10
-197.8014497797283
 20
53.02473325356119
 30
0.0
 10
-197.3409871742333
 20
48.28608585713937
 30
0.0
 10
-196.8840073665442
 20
43.9182966736789
 30
0.0
 10
-196.3607831639268
 20
39.26323674798685
 30
0.0
 10
-195.7348080826074
 20
34.09785786330194
 30
0.0
 10
-195.0006325327265
 20
28.52292079268125
 30
0.0
 10
-194.2539522666055
 20
23.32121268578158
 30
0.0
 10
-193.5368025578549
 20
18.67966458731014
 30
0.0
 10
-192.8515446904544
 20
14.51075025819024
 30
0.0
 10
-192.1186270566266
 20
10.33619121145454
 30
0.0
 10
-191.4695401598277
 20
6.880245691353648
 30
0.0
 10
-190.9528693522902
 20
4.267123028908373
 30
0.0
 10
-190.56836515644
 20
2.385067007754448
 30
0.0
 10
-190.1715597691826
 20
0.5052637662127448
 30
0.0
 10
-189.6954828640042
 20
-1.67403593273046
 30
0.0
 10
-189.0385149694328
 20
-4.544842066652365
 30
0.0
 10
-188.1540935411567
 20
-8.204864869994049
 30
0.0
 10
-187.4053788466228
 20
-10.93880678440288
 30
0.0
 10
-187.0107335368359
 20
-12.3798595133373
 30
0.0
  0
SPLINE
  5
65
330
1F
100
AcDbEntity
  8
0
  6
Continuous
 62
     7
370
    25
100
AcDbSpline
210
0.0
220
0.0
230
1.0
 70
     8
 71
     3
 72
    69
 73
    65
 74
     0
 42
0.00000001
 43
0.00000001
 40
0.0
 40
0.0
 40
0.0
 40
0.0
 40
0.0272228478741735
 40
0.0516116176364414
 40
0.0731629078558623
 40
0.0918732284436624
 40
0.1077397428618656
 40
0.12076036362725
 40
0.1291864566689131
 40
0.1357603665887031
 40
0.1410029550360918
 40
0.1464511657424669
 40
0.1522054901192462
 40
0.158265960530321
 40
0.164632619970987
 40
0.1835899316391663
 40
0.2042123824840821
 40
0.2239867762864613
 40
0.2450326526265157
 40
0.2662706889068505
 40
0.2870102670252613
 40
0.3174781725631387
 40
0.3468600271975325
 40
0.3761815870610115
 40
0.405804776254669
 40
0.4257233338914168
 40
0.4458854806120994
 40
0.4665268159169284
 40
0.4876539967704764
 40
0.509265729740925
 40
0.5309437374853114
 40
0.5436705616879869
 40
0.5544923182895843
 40
0.5634095138675045
 40
0.5709120081714423
 40
0.5798425000507531
 40
0.5943886991294918
 40
0.6121251982628292
 40
0.6312058535644374
 40
0.6533202224186677
 40
0.6758927233902536
 40
0.6989218414254701
 40
0.721356777447754
 40
0.7411012964826769
 40
0.7580996113285625
 40
0.7679808016877501
 40
0.7780809599056375
 40
0.7899662611903198
 40
0.8036357861237032
 40
0.8190878372369094
 40
0.8323622631473211
 40
0.8446846754705069
 40
0.8553676448795458
 40
0.8644123451622853
 40
0.8718197417692493
 40
0.8781705536932132
 40
0.8857717745404575
 40
0.8953430486128364
 40
0.9068837663442233
 40
0.9203933252840828
 40
0.9355945306261617
 40
0.9588981884217369
 40
0.98079886149525
 40
0.9999999999999999
 40
0.9999999999999999
 40
0.9999999999999999
 40
0.9999999999999999
 10
133.0467703664076
 20
35.76056138700072
 30
0.0
 10
130.3677064825649
 20
34.26665121848568
 30
0.0
 10
125.2884869447859
 20
31.43435678856532
 30
0.0
 10
117.5922940902724
 20
27.72862211540199
 30
0.0
 10
110.537845175397
 20
24.63867094061531
 30
0.0
 10
104.2079172935239
 20
22.11605841108315
 30
0.0
 10
98.7038595082715
 20
20.09361883174808
 30
0.0
 10
94.30320168800023
 20
18.58700137505392
 30
0.0
 10
90.95271121849014
 20
17.50025990709325
 30
0.0
 10
88.50954317705116
 20
16.73797542876995
 30
0.0
 10
86.41039936897164
 20
16.10315664350878
 30
0.0
 10
84.3984145856604
 20
15.51195668969718
 30
0.0
 10
82.27289415162893
 20
14.90629787533548
 30
0.0
 10
80.01972834300537
 20
14.28518151633071
 30
0.0
 10
76.10473598323033
 20
13.24374770278346
 30
0.0
 10
70.29810149164182
 20
11.81172381168957
 30
0.0
 10
62.6612776836131
 20
10.15226310255123
 30
0.0
 10
54.62996540954651
 20
8.637667477381857
 30
0.0
 10
46.40623014979469
 20
7.317439025898404
 30
0.0
 10
37.95512807531615
 20
6.199365998141776
 30
0.0
 10
28.14833150254342
 20
5.170857184303449
 30
0.0
 10
17.13886881432685
 20
4.378457870998664
 30
0.0
 10
4.883645052384577
 20
3.96322586374917
 30
0.0
 10
-7.276608418157787
 20
4.007807149503121
 30
0.0
 10
-18.10663174125429
 20
4.455158214611718
 30
0.0
 10
-27.62251857247581
 20
5.14820211302626
 30
0.0
 10
-35.85822187023914
 20
5.959938322584998
 30
0.0
 10
-44.18483743414215
 20
7.001645271735857
 30
0.0
 10
-52.61242651979126
 20
8.289549877176075
 30
0.0
 10
-61.0612916493774
 20
9.826848843622809
 30
0.0
 10
-68.28885577824197
 20
11.36274101986685
 30
0.0
 10
-74.03579446089755
 20
12.72896557000965
 30
0.0
 10
-78.11461922213601
 20
13.77133679321742
 30
0.0
 10
-81.50238621175585
 20
14.6886492113032
 30
0.0
 10
-84.6265722923353
 20
15.57473357142142
 30
0.0
 10
-88.40852627208672
 20
16.69675598868242
 30
0.0
 10
-93.37047374205495
 20
18.26328094429251
 30
0.0
 10
-99.42977520236607
 20
20.33971026700776
 30
0.0
 10
-106.2072306495759
 20
22.8797936028551
 30
0.0
 10
-113.3156296798805
 20
25.81348603929029
 30
0.0
 10
-120.5864731040626
 20
29.13450595424562
 30
0.0
 10
-127.5882075581594
 20
32.67421252555384
 30
0.0
 10
-133.989847700703
 20
36.25302294932674
 30
0.0
 10
-139.5214869228016
 20
39.64881435208295
 30
0.0
 10
-143.6817101192363
 20
42.41889179800398
 30
0.0
 10
-146.860501155357
 20
44.66565411207861
 30
0.0
 10
-149.522561429158
 20
46.63319563735151
 30
0.0
 10
-152.4083328956179
 20
48.87490067034973
 30
0.0
 10
-155.5997741045102
 20
51.50410019461592
 30
0.0
 10
-158.7464940149259
 20
54.28025294735312
 30
0.0
 10
-161.6436466937907
 20
57.02047234657644
 30
0.0
 10
-164.0845575749022
 20
59.48205142817071
 30
0.0
 10
-166.1443115569376
 20
61.68696057885507
 30
0.0
 10
-167.8171586002943
 20
63.57509064205225
 30
0.0
 10
-169.1726285530707
 20
65.17639347494553
 30
0.0
 10
-170.4029895122851
 20
66.68811786184656
 30
0.0
 10
-171.7134785902198
 20
68.36562533813068
 30
0.0
 10
-173.2446043233788
 20
70.43068324723194
 30
0.0
 10
-174.9885462353814
 20
72.94530088700473
 30
0.0
 10
-176.8730488943088
 20
75.89920258871341
 30
0.0
 10
-179.1000439775132
 20
79.76319703637616
 30
0.0
 10
-181.3079450066448
 20
84.24897299087588
 30
0.0
 10
-183.2374746802724
 20
89.00815206433258
 30
0.0
 10
-184.1431784616163
 20
91.9871349911547
 30
0.0
 10
-184.5662873972589
 20
93.37879782996364
 30
0.0
  0
SPLINE
  5
66
330
1F
100
AcDbEntity
  8
0
  6
Continuous
 62
     7
370
    25
100
AcDbSpline
210
0.0
220
0.0
230
1.0
 70
     8
 71
     3
 72
    83
 73
    79
 74
     0
 42
0.00000001
 43
0.00000001
 40
0.0
 40
0.0
 40
0.0
 40
0.0
 40
0.0043363833688498
 40
0.0194251647260236
 40
0.0346784004319995
 40
0.0500934599143412
 40
0.0640231847885902
 40
0.0779960122385054
 40
0.0920052568312871
 40
0.1060448496220775
 40
0.1201086896899209
 40
0.1341909582516331
 40
0.148286329440094
 40
0.1623900876519399
 40
0.1764981685149128
 40
0.1906071430987899
 40
0.2047138668339823
 40
0.2188155644687979
 40
0.2329105161061994
 40
0.2469972593729185
 40
0.2610745221626953
 40
0.2751411216649131
 40
0.2891958553672692
 40
0.3032373750357936
 40
0.3172640286039866
 40
0.3312736445097456
 40
0.3452632138768464
 40
0.3592283883778769
 40
0.3731626332288038
 40
0.387055699392641
 40
0.4008906525004714
 40
0.4146375446061494
 40
0.4282382604851184
 40
0.4415638993880507
 40
0.4542616858689392
 40
0.4654030142776293
 40
0.4737432084479566
 40
0.4831946275677301
 40
0.4923643383404736
 40
0.5078122883514674
 40
0.5140086887924837
 40
0.5243015864982788
 40
0.5349771079108235
 40
0.5464203488428417
 40
0.5583556615815997
 40
0.5706721544246318
 40
0.5832813226331237
 40
0.5961203399037502
 40
0.6091427951521485
 40
0.6223138116919509
 40
0.6356067070359942
 40
0.6490007455337374
 40
0.6624795897217695
 40
0.6760302123716302
 40
0.6896421172882117
 40
0.7033067706069227
 40
0.717017177819232
 40
0.7307675629996535
 40
0.7445531204269562
 40
0.7583698178386156
 40
0.7722142366840451
 40
0.7860834390621616
 40
0.7999748542755374
 40
0.8138860648693848
 40
0.8278142395330941
 40
0.8417571874620904
 40
0.8557127399257887
 40
0.8696787501730672
 40
0.883653111521577
 40
0.8976338279770265
 40
0.9116191496454611
 40
0.9256077830454891
 40
0.9395991792238508
 40
0.9535938907963275
 40
0.9675939736713512
 40
0.9816033929693304
 40
0.9956283794922227
 40
1.0
 40
1.0
 40
1.0
 40
1.0
 10
-185.2998227959844
 20
-17.62451434249084
 30
0.0
 10
-185.1452507483055
 20
-18.08033670214831
 30
0.0
 10
-184.452833304366
 20
-20.12222822072481
 30
0.0
 10
-182.8832902033231
 20
-23.70618573547009
 30
0.0
 10
-180.5766175188213
 20
-28.37820674526089
 30
0.0
 10
-177.9864614664281
 20
-32.84690835131526
 30
0.0
 10
-175.1893346368811
 20
-37.10644698266405
 30
0.0
 10
-172.222495090444
 20
-41.14692808628921
 30
0.0
 10
-168.9940161928647
 20
-45.11219852952382
 30
0.0
 10
-165.5090875979979
 20
-48.99521713004302
 30
0.0
 10
-161.7740872673936
 20
-52.78948525493632
 30
0.0
 10
-157.7956908965221
 20
-56.48884772961398
 30
0.0
 10
-153.5810247365907
 20
-60.08754434704205
 30
0.0
 10
-149.1375321092827
 20
-63.58019374747914
 30
0.0
 10
-144.472936220928
 20
-66.96177576328994
 30
0.0
 10
-139.5952319164208
 20
-70.22757958488907
 30
0.0
 10
-134.5126879148467
 20
-73.37316761877885
 30
0.0
 10
-129.233766184659
 20
-76.3943985657268
 30
0.0
 10
-123.7670818910676
 20
-79.28741297043862
 30
0.0
 10
-118.1213845950467
 20
-82.04861003164777
 30
0.0
 10
-112.3056565566365
 20
-84.6745820424215
 30
0.0
 10
-106.3291325454739
 20
-87.16210518124518
 30
0.0
 10
-100.2013321425471
 20
-89.5081321904446
 30
0.0
 10
-93.93210499149099
 20
-91.70978828924903
 30
0.0
 10
-87.53169685824402
 20
-93.76436945581021
 30
0.0
 10
-81.01085059858175
 20
-95.66934216229906
 30
0.0
 10
-74.3809678310076
 20
-97.42234349054054
 30
0.0
 10
-67.65438056018193
 20
-99.02118011487163
 30
0.0
 10
-60.84483245027673
 20
-100.4638234923938
 30
0.0
 10
-53.96838707577604
 20
-101.7483955899389
 30
0.0
 10
-47.04528371263422
 20
-102.873130995073
 30
0.0
 10
-40.10414773071267
 20
-103.8362743570889
 30
0.0
 10
-33.19305358060316
 20
-104.6357701550877
 30
0.0
 10
-26.41593984002249
 20
-105.2680889600559
 30
0.0
 10
-20.02761971155146
 20
-105.7275815598013
 30
0.0
 10
-14.47730199075263
 20
-106.0190556736831
 30
0.0
 10
-9.477180898655842
 20
-106.2027603844999
 30
0.0
 10
-4.811862700392199
 20
-106.3071736337445
 30
0.0
 10
1.086953147847032
 20
-106.3507195428335
 30
0.0
 10
6.422896545154464
 20
-106.2843553360386
 30
0.0
 10
11.94557351059224
 20
-106.1193102971128
 30
0.0
 10
16.6369459615772
 20
-105.9165957690444
 30
0.0
 10
22.22023854890879
 20
-105.5803449217012
 30
0.0
 10
28.06567647262519
 20
-105.1227413124441
 30
0.0
 10
34.16354431019712
 20
-104.5279755548145
 30
0.0
 10
40.42243622703533
 20
-103.7911004603514
 30
0.0
 10
46.78721424185567
 20
-102.9077970594399
 30
0.0
 10
53.21372347823299
 20
-101.8754957395359
 30
0.0
 10
59.66697198239059
 20
-100.6927353979643
 30
0.0
 10
66.11819030057642
 20
-99.35893233469001
 30
0.0
 10
72.54307814227163
 20
-97.87419532516459
 30
0.0
 10
78.92061660877293
 20
-96.2391960258771
 30
0.0
 10
85.23226071298124
 20
-94.45507306888945
 30
0.0
 10
91.46137908814367
 20
-92.52335897109596
 30
0.0
 10
97.59285780106846
 20
-90.44592267441101
 30
0.0
 10
103.6128147945986
 20
-88.22492309776351
 30
0.0
 10
109.5083899172654
 20
-85.8627707133842
 30
0.0
 10
115.2675871567911
 20
-83.36209524654492
 30
0.0
 10
120.8791531877123
 20
-80.72571835020787
 30
0.0
 10
126.3324812695554
 20
-77.95663064861012
 30
0.0
 10
131.6175328554204
 20
-75.05797294864
 30
0.0
 10
136.7247715929711
 20
-72.03302171982557
 30
0.0
 10
141.6450924331366
 20
-68.88518790238504
 30
0.0
 10
146.369706275766
 20
-65.61806053715824
 30
0.0
 10
150.8901715024227
 20
-62.23537494903456
 30
0.0
 10
155.1983677330258
 20
-58.74101351849792
 30
0.0
 10
159.2865187404165
 20
-55.13896483263976
 30
0.0
 10
163.147106157312
 20
-51.43338033137329
 30
0.0
 10
166.7728610868045
 20
-47.62858753914984
 30
0.0
 10
170.1567426798363
 20
-43.72909954665136
 30
0.0
 10
173.2920012119968
 20
-39.7396287573492
 30
0.0
 10
176.1719658400064
 20
-35.66504961884339
 30
0.0
 10
178.7908872736911
 20
-31.51049802096153
 30
0.0
 10
181.1408452643721
 20
-27.28089273170043
 30
0.0
 10
183.2233186486804
 20
-22.98254396787757
 30
0.0
 10
185.0059262134531
 20
-18.61690930236497
 30
0.0
 10
186.2210445362246
 20
-15.21854508452172
 30
0.0
 10
186.7425079791917
 20
-13.26407308937368
 30
0.0
 10
186.8664243229788
 20
-12.79962821420614
 30
0.0
  0
SPLINE
  5
67
330
1F
100
AcDbEntity
  8
0
  6
Continuous
 62
     7
370
    25
100
AcDbSpline
210
0.0
220
0.0
230
1.0
 70
     8
 71
     3
 72
    58
 73
    54
 74
     0
 42
0.00000001
 43
0.00000001
 40
0.0
 40
0.0
 40
0.0
 40
0.0
 40
0.0125807805998602
 40
0.0261491157411974
 40
0.040706092736116
 40
0.05625370142869
 40
0.0719702564091993
 40
0.0861651802444399
 40
0.1008764198442892
 40
0.1134045122601728
 40
0.1240144678105301
 40
0.1353495466355199
 40
0.1483347319433767
 40
0.1626862015802097
 40
0.176519749001683
 40
0.1890812264647587
 40
0.2003715343275677
 40
0.2115418230791562
 40
0.224358159030434
 40
0.2388219438932739
 40
0.2549316975083904
 40
0.2698771505889531
 40
0.2844807121059392
 40
0.2977103756785076
 40
0.3095673148042927
 40
0.3200527007323231
 40
0.3291676090420799
 40
0.3424173470975807
 40
0.3568259806112947
 40
0.3724359776100438
 40
0.3916132611288804
 40
0.4123172317193003
 40
0.4345034431447772
 40
0.4567652635120178
 40
0.4784238149038217
 40
0.4994807383390712
 40
0.5300317216486821
 40
0.56031500369483
 40
0.590595403983215
 40
0.6208710751819698
 40
0.6511412816181761
 40
0.6814086343977748
 40
0.711678839239935
 40
0.7419543028052319
 40
0.7722355419105015
 40
0.8027233911028584
 40
0.8335655397513823
 40
0.8647998746264987
 40
0.8904076087959806
 40
0.9166758973856112
 40
0.9436078583299811
 40
0.9713542479681242
 40
1.0
 40
1.0
 40
1.0
 40
1.0
 10
200.0879396846275
 20
112.0280799263619
 30
0.0
 10
200.0354134752652
 20
113.2576306325496
 30
0.0
 10
199.9262379024809
 20
115.8132481850988
 30
0.0
 10
199.4842113202706
 20
119.6869248027102
 30
0.0
 10
198.8065059141505
 20
123.7642664261134
 30
0.0
 10
197.8572063976472
 20
127.9498588063084
 30
0.0
 10
196.6791265099756
 20
132.032963275528
 30
0.0
 10
195.2801540347314
 20
136.0267750389967
 30
0.0
 10
193.7695346722309
 20
139.7067075843978
 30
0.0
 10
192.2072327286936
 20
143.0433148072883
 30
0.0
 10
190.643610660009
 20
146.0609569136247
 30
0.0
 10
188.9234094914753
 20
149.0980743059615
 30
0.0
 10
186.8539795376936
 20
152.4303331102577
 30
0.0
 10
184.4550612072588
 20
155.9369242717454
 30
0.0
 10
181.8828380280079
 20
159.3599336580606
 30
0.0
 10
179.3348725299176
 20
162.4810760568595
 30
0.0
 10
176.8259255424885
 20
165.3437595481659
 30
0.0
 10
174.1716412835385
 20
168.183759360481
 30
0.0
 10
171.1387863053708
 20
171.2216348085937
 30
0.0
 10
167.5363120550847
 20
174.5788784438987
 30
0.0
 10
163.5495940680799
 20
178.0150908598043
 30
0.0
 10
159.3441624855499
 20
181.3713026493743
 30
0.0
 10
155.2227231178908
 20
184.4331015400726
 30
0.0
 10
151.2441348923572
 20
187.1985632932887
 30
0.0
 10
147.5567426921929
 20
189.613647275977
 30
0.0
 10
144.202519407819
 20
191.6975713084385
 30
0.0
 10
140.616618220306
 20
193.8246379650092
 30
0.0
 10
136.4989538904247
 20
196.1410950742328
 30
0.0
 10
131.5072559612087
 20
198.771720039347
 30
0.0
 10
125.6576027491358
 20
201.6432213277893
 30
0.0
 10
118.8414929757548
 20
204.7226009773388
 30
0.0
 10
110.9540415245868
 20
207.9565143686521
 30
0.0
 10
102.3961234651136
 20
211.1064650869115
 30
0.0
 10
93.44210876637106
 20
214.0366978004559
 30
0.0
 10
84.40036505288386
 20
216.6501366312865
 30
0.0
 10
73.96544748130478
 20
219.2944869995351
 30
0.0
 10
62.01048978203565
 20
221.8329705708876
 30
0.0
 10
48.40122776927494
 20
224.1024570557686
 30
0.0
 10
34.59441418992044
 20
225.8066596111501
 30
0.0
 10
20.61877173460561
 20
226.9442021675676
 30
0.0
 10
6.54203606868316
 20
227.507400927316
 30
0.0
 10
-7.567246441184183
 20
227.4859596036803
 30
0.0
 10
-21.63873639092191
 20
226.8806245905484
 30
0.0
 10
-35.60438371348955
 20
225.7015144212499
 30
0.0
 10
-49.42711207538282
 20
223.9524719949717
 30
0.0
 10
-63.08977966852247
 20
221.6280423220158
 30
0.0
 10
-76.57319092394337
 20
218.7120482852576
 30
0.0
 10
-88.96644540450676
 20
215.4127337967149
 30
0.0
 10
-100.3272909345615
 20
211.8374776812096
 30
0.0
 10
-110.7352376242301
 20
208.0755242080003
 30
0.0
 10
-120.9867114725962
 20
203.826486519554
 30
0.0
 10
-131.0893234811703
 20
199.0934336791538
 30
0.0
 10
-137.4398893872419
 20
195.5655753962942
 30
0.0
 10
-140.6658129081449
 20
193.7735144711081
 30
0.0
  0
SPLINE
  5
68
330
1F
100
AcDbEntity
  8
0
  6
Continuous
 62
     7
370
    25
100
AcDbSpline
210
0.0
220
0.0
230
1.0
 70
     8
 71
     3
 72
    31
 73
    27
 74
     0
 42
0.00000001
 43
0.00000001
 40
0.0
 40
0.0
 40
0.0
 40
0.0
 40
0.0282805919503083
 40
0.0540551140916059
 40
0.072623812071192
 40
0.0887703494197984
 40
0.1031836898655525
 40
0.1169594233945593
 40
0.1322297503717246
 40
0.2045910296312357
 40
0.2637501503172889
 40
0.3306012041000139
 40
0.4055140174625004
 40
0.4885626835922303
 40
0.5523523116075733
 40
0.6100880278885674
 40
0.6612599693421596
 40
0.7103687608942733
 40
0.7674769898852546
 40
0.7961042504123408
 40
0.8195900344423083
 40
0.843795037462457
 40
0.8728333154546576
 40
0.9079796800930856
 40
0.9525534258458062
 40
1.0
 40
1.0
 40
1.0
 40
1.0
 10
187.025476975955
 20
-12.32888619988664
 30
0.0
 10
187.3624192432437
 20
-11.10345153325026
 30
0.0
 10
188.0064458156924
 20
-8.761173449636207
 30
0.0
 10
188.7869835768751
 20
-5.590924701805958
 30
0.0
 10
189.4032824488075
 20
-2.963593737382961
 30
0.0
 10
189.8799122548613
 20
-0.8367917231243762
 30
0.0
 10
190.2926932794034
 20
1.073129852338102
 30
0.0
 10
190.6811227652728
 20
2.930577997881455
 30
0.0
 10
191.5549165490547
 20
7.24814920408659
 30
0.0
 10
192.6925341947341
 20
13.45353828444102
 30
0.0
 10
194.0191476609699
 20
21.66800871603452
 30
0.0
 10
195.2017832054426
 20
29.89823985686977
 30
0.0
 10
196.3548516736478
 20
39.03273306269157
 30
0.0
 10
197.3316825391584
 20
48.02009519133632
 30
0.0
 10
198.1049016345087
 20
56.30346200167038
 30
0.0
 10
198.6707168879846
 20
63.30199601117636
 30
0.0
 10
199.1176106940707
 20
69.72531709854627
 30
0.0
 10
199.4963847287898
 20
76.15362213275453
 30
0.0
 10
199.7570233048335
 20
81.66815986650816
 30
0.0
 10
199.9243862591375
 20
86.1556080676829
 30
0.0
 10
200.022108040404
 20
89.3075046519903
 30
0.0
 10
200.1018604562776
 20
92.49723636713576
 30
0.0
 10
200.1687956645201
 20
96.18369192628434
 30
0.0
 10
200.2097810638544
 20
100.7441160992464
 30
0.0
 10
200.2041695334464
 20
106.1243997448472
 30
0.0
 10
200.1169349794208
 20
110.0447906784737
 30
0.0
 10
200.0719559928169
 20
112.0661824681773
 30
0.0
  0
SPLINE
  5
69
330
1F
100
AcDbEntity
  8
0
  6
Continuous
 62
     7
370
    25
100
AcDbSpline
210
0.0
220
0.0
230
1.0
 70
     8
 71
     3
 72
    25
 73
    21
 74
     0
 42
0.00000001
 43
0.00000001
 40
0.0
 40
0.0
 40
0.0
 40
0.0
 40
0.0603031608875791
 40
0.1218557801054949
 40
0.1846602465952092
 40
0.2487156622217601
 40
0.3117211775388072
 40
0.3548916125742664
 40
0.3920029729505504
 40
0.4230535641036327
 40
0.4480415447179866
 40
0.4686592861809229
 40
0.504662088245677
 40
0.5503109935241172
 40
0.6056140893421315
 40
0.6696894151133821
 40
0.741167448091599
 40
0.8200397228026366
 40
0.9063137528033793
 40
1.0
 40
1.0
 40
1.0
 40
1.0
 10
184.6626910032238
 20
93.68217205137566
 30
0.0
 10
184.2885116910404
 20
92.43373015071815
 30
0.0
 10
183.5324002150527
 20
89.9109791127648
 30
0.0
 10
182.0546529954558
 20
86.04822394896016
 30
0.0
 10
180.2770321386519
 20
82.08961062954725
 30
0.0
 10
178.1769982730619
 20
78.09206101333832
 30
0.0
 10
176.0201518797178
 20
74.51407974165258
 30
0.0
 10
174.0341545909019
 20
71.54448335928248
 30
0.0
 10
172.3891279831898
 20
69.25945889075722
 30
0.0
 10
170.9413208954936
 20
67.36548113724653
 30
0.0
 10
169.7020841543545
 20
65.81937720168432
 30
0.0
 10
168.3422572576492
 20
64.18509947770346
 30
0.0
 10
166.5760503509742
 20
62.15610503665518
 30
0.0
 10
164.0908900744264
 20
59.47492602894632
 30
0.0
 10
160.9207397741198
 20
56.29983743111072
 30
0.0
 10
157.0176389920014
 20
52.70680504421251
 30
0.0
 10
152.3384821028371
 20
48.77467151146038
 30
0.0
 10
146.8177910103977
 20
44.57850467573521
 30
0.0
 10
140.4013470151494
 20
40.15170063902468
 30
0.0
 10
135.5647169650334
 20
37.26393168281628
 30
0.0
 10
133.0467962020151
 20
35.76057638412797
 30
0.0
  0
SPLINE
  5
6C
330
1F
100
AcDbEntity
  8
0
  6
Continuous
 62
     7
370
    25
100
AcDbSpline
210
0.0
220
0.0
230
1.0
 70
     8
 71
     3
 72
    22
 73
    18
 74
     0
 42
0.00000001
 43
0.00000001
 40
0.0
 40
0.0
 40
0.0
 40
0.0
 40
0.0682760343126543
 40
0.1516679391575358
 40
0.232146534145752
 40
0.3092408640917586
 40
0.3646137638837927
 40
0.4219681260441835
 40
0.4999191084227196
 40
0.5968794893892495
 40
0.6363255001151947
 40
0.7014717868741587
 40
0.7686197299319835
 40
0.8400564914819268
 40
0.9138622174329861
 40
0.9892347751856966
 40
1.0
 40
1.0
 40
1.0
 40
1.0
 10
-12.59974615366939
 20
11.02174876996562
 30
0.0
 10
-12.10285296438891
 20
11.21675025147623
 30
0.0
 10
-10.99905766112804
 20
11.64992527593571
 30
0.0
 10
-9.148486846531954
 20
12.18721166508441
 30
0.0
 10
-7.14364216536177
 20
12.64533382468489
 30
0.0
 10
-5.302426180648214
 20
12.94877388058032
 30
0.0
 10
-3.62736330601592
 20
13.14296135774379
 30
0.0
 10
-1.923057902437601
 20
13.27112379778381
 30
0.0
 10
0.1711781662810989
 20
13.32847960104323
 30
0.0
 10
2.105306742664932
 20
13.26258426291752
 30
0.0
 10
3.902261858297381
 20
13.11445733171422
 30
0.0
 10
5.416285178963006
 20
12.93249601896231
 30
0.0
 10
7.171464267923236
 20
12.63420496411211
 30
0.0
 10
8.946641173862911
 20
12.23841861991307
 30
0.0
 10
10.69946650100245
 20
11.72991280516641
 30
0.0
 10
11.9314648824803
 20
11.31877592900041
 30
0.0
 10
12.53176656294683
 20
11.05636642529732
 30
0.0
 10
12.60679034872397
 20
11.02357132404688
 30
0.0
  0
SPLINE
  5
6D
330
1F
100
AcDbEntity
  8
0
  6
Continuous
 62
     7
370
    25
100
AcDbSpline
210
0.0
220
0.0
230
1.0
 70
     8
 71
     3
 72
    58
 73
    54
 74
     0
 42
0.00000001
 43
0.00000001
 40
0.0
 40
0.0
 40
0.0
 40
0.0
 40
0.0022951379212574
 40
0.0051894285407297
 40
0.0086828859519084
 40
0.0127755341637165
 40
0.0174674073852574
 40
0.0227585481289277
 40
0.0286490026412317
 40
0.0446697463083306
 40
0.0582605719683496
 40
0.0720901296649064
 40
0.088752318142652
 40
0.1079190157531875
 40
0.1200181373103266
 40
0.1316814871077168
 40
0.151932166018939
 40
0.1843406327292555
 40
0.217093862234542
 40
0.2500222348431663
 40
0.2829506074517906
 40
0.3157038369570357
 40
0.3481123036672997
 40
0.3800170065387481
 40
0.4112738626970487
 40
0.4417569515231674
 40
0.4713605759302434
 40
0.5000001452307562
 40
0.5286397145312649
 40
0.55824333893836
 40
0.5887264277644886
 40
0.6199832839227551
 40
0.6518879867941564
 40
0.6842964535043172
 40
0.7170496830094572
 40
0.7499780556180231
 40
0.7829064282265887
 40
0.8156596577315101
 40
0.8480681244414405
 40
0.8686717034166611
 40
0.8799820309760066
 40
0.8921512786783872
 40
0.9112478671269526
 40
0.9278557965955518
 40
0.9417396196523874
 40
0.9542902504482199
 40
0.9713510542464956
 40
0.9774834526729589
 40
0.9830727566463724
 40
0.9881190196737706
 40
0.9926222906837083
 40
0.9965826086738111
 40
1.0
 40
1.0
 40
1.0
 40
1.0
 10
138.6648516614212
 20
33.47697686758357
 30
0.0
 10
138.3309838883073
 20
33.28504324248838
 30
0.0
 10
137.5760911498012
 20
32.85107113877743
 30
0.0
 10
136.3004225691664
 20
32.13230565487765
 30
0.0
 10
134.7464923702326
 20
31.27321093763641
 30
0.0
 10
132.9050292314103
 20
30.27955652197264
 30
0.0
 10
130.7669584258783
 20
29.1573034749681
 30
0.0
 10
128.3216293924315
 20
27.9137080108033
 30
0.0
 10
124.0670735813683
 20
25.82531333983801
 30
0.0
 10
118.3527108920404
 20
23.21045975616097
 30
0.0
 10
111.1120148186623
 20
20.20244283371954
 30
0.0
 10
103.5431532362479
 20
17.33551264568407
 30
0.0
 10
94.7579198620648
 20
14.34474950092067
 30
0.0
 10
86.0094312565973
 20
11.73719962143953
 30
0.0
 10
77.98721580843075
 20
9.628133936930697
 30
0.0
 10
69.6291511212713
 20
7.643479585779239
 30
0.0
 10
57.17180953132746
 20
5.100154224381551
 30
0.0
 10
40.18366806424512
 20
2.519312031583551
 30
0.0
 10
20.25295578259625
 20
0.7226601107557101
 30
0.0
 10
-0.0000817955280965
 20
0.1172412908832937
 30
0.0
 10
-20.25296548187126
 20
0.722626577689886
 30
0.0
 10
-40.18413181116942
 20
2.519484496871449
 30
0.0
 10
-59.48855998095687
 20
5.451728436013117
 30
0.0
 10
-77.89306772438852
 20
9.430521680091466
 30
0.0
 10
-95.16793344583675
 20
14.34094355252279
 30
0.0
 10
-111.1344061624965
 20
20.04971145820868
 30
0.0
 10
-125.6677865359661
 20
26.41351742952636
 30
0.0
 10
-138.8521479454887
 20
33.3689442154647
 30
0.0
 10
-150.9006036227195
 20
40.98011792386804
 30
0.0
 10
-161.9242198279209
 20
49.37005783613721
 30
0.0
 10
-171.8131701812876
 20
58.5873129263536
 30
0.0
 10
-180.3191821974556
 20
68.5598805339143
 30
0.0
 10
-187.2113995518171
 20
79.18458112003266
 30
0.0
 10
-192.2907178257447
 20
90.32877940296132
 30
0.0
 10
-195.403318645951
 20
101.8348098727631
 30
0.0
 10
-196.451975615263
 20
113.5265478113601
 30
0.0
 10
-195.4032460523209
 20
125.2183774772696
 30
0.0
 10
-192.2909863057922
 20
136.724134620317
 30
0.0
 10
-187.8018970352231
 20
146.5716564443674
 30
0.0
 10
-183.389282579136
 20
153.7619284446753
 30
0.0
 10
-179.9412847758242
 20
158.5934150187414
 30
0.0
 10
-176.316999760635
 20
163.1862442192251
 30
0.0
 10
-171.804310193048
 20
168.2306191130292
 30
0.0
 10
-166.6316796146506
 20
173.2952957866628
 30
0.0
 10
-161.7832392820885
 20
177.5618842684179
 30
0.0
 10
-156.578224050066
 20
181.7517080534997
 30
0.0
 10
-152.0269262540541
 20
185.0775940188787
 30
0.0
 10
-148.1974683348139
 20
187.6755322039904
 30
0.0
 10
-145.9186159938777
 20
189.165096520775
 30
0.0
 10
-143.8226896360692
 20
190.4899553209816
 30
0.0
 10
-141.9212957250281
 20
191.6556297946235
 30
0.0
 10
-140.2270909297946
 20
192.6686336295095
 30
0.0
 10
-139.1594471615477
 20
193.2888234247441
 30
0.0
 10
-138.6649093047891
 20
193.5760983953296
 30
0.0
  0
SPLINE
  5
6E
330
1F
100
AcDbEntity
  8
0
  6
Continuous
 62
     7
370
    25
100
AcDbSpline
210
0.0
220
0.0
230
1.0
 70
     8
 71
     3
 72
    14
 73
    10
 74
     0
 42
0.00000001
 43
0.00000001
 40
0.0
 40
0.0
 40
0.0
 40
0.0
 40
0.25
 40
0.25
 40
0.5
 40
0.5
 40
0.75
 40
0.75
 40
1.0
 40
1.0
 40
1.0
 40
1.0
 10
138.6648516614212
 20
33.47697686758361
 30
0.0
 10
138.9949094977112
 20
33.28645066601779
 30
0.0
 10
139.3501185099574
 20
33.01352071551998
 30
0.0
 10
140.0388309611821
 20
32.30614577162527
 30
0.0
 10
140.3701761612602
 20
31.87232640106337
 30
0.0
 10
140.9206957243057
 20
30.93284413183224
 30
0.0
 10
141.1381048740415
 20
30.43018930540295
 30
0.0
 10
141.4217066761787
 20
29.47812563115067
 30
0.0
 10
141.4887175757898
 20
29.03060596193183
 30
0.0
 10
141.4956811901173
 20
28.64556439551838
 30
0.0
  0
SPLINE
  5
70
330
1F
100
AcDbEntity
  8
0
  6
Continuous
 62
     7
370
    25
100
AcDbSpline
210
0.0
220
0.0
230
1.0
 70
     8
 71
     3
 72
     8
 73
     4
 74
     0
 42
0.00000001
 43
0.00000001
 40
0.0
 40
0.0
 40
0.0
 40
0.0
 40
1.0
 40
1.0
 40
1.0
 40
1.0
 10
133.9637236300169
 20
-72.2365083680116
 30
0.0
 10
138.4472230955375
 20
-51.80243381131147
 30
0.0
 10
142.1323707106161
 20
-6.77611276941597
 30
0.0
 10
141.4927815319216
 20
28.64716765314389
 30
0.0
  0
SPLINE
  5
71
330
1F
100
AcDbEntity
  8
0
  6
Continuous
 62
     7
370
    25
100
AcDbSpline
210
0.0
220
0.0
230
1.0
 70
     8
 71
     3
 72
    65
 73
    61
 74
     0
 42
0.00000001
 43
0.00000001
 40
0.0
 40
0.0
 40
0.0
 40
0.0
 40
0.0022243608826243
 40
0.0048530420870463
 40
0.0078860515274341
 40
0.0113234028764298
 40
0.0151651157757041
 40
0.019411215278438
 40
0.0240617303743229
 40
0.029116691516024
 40
0.0345761271629215
 40
0.0443114054893544
 40
0.0534538443456332
 40
0.0620032559834577
 40
0.0699594901784839
 40
0.087956076586001
 40
0.1059511520354293
 40
0.1213901219610458
 40
0.1423355702876953
 40
0.1788649243800613
 40
0.2153143724519969
 40
0.2379963268349764
 40
0.2514613215779747
 40
0.2637658315044238
 40
0.2870669425169462
 40
0.321915454639995
 40
0.3562755552570216
 40
0.3913933993527443
 40
0.4092980719935688
 40
0.4272043906134023
 40
0.442636008074888
 40
0.4634831687447157
 40
0.4898258726684648
 40
0.4999979879510875
 40
0.5100755460684636
 40
0.5365127388369227
 40
0.5727770899041373
 40
0.5996867593094131
 40
0.6262423530689125
 40
0.6523605481361581
 40
0.6780752893947599
 40
0.704140103175913
 40
0.7306510649705659
 40
0.7575257462803004
 40
0.7846742945429888
 40
0.8129038706140647
 40
0.8394064214832421
 40
0.8667893647314437
 40
0.8940490276055092
 40
0.9075707273785328
 40
0.9210934396436605
 40
0.9332569052342885
 40
0.9478230088128604
 40
0.9595122691145687
 40
0.9741509185384655
 40
0.9810524453086349
 40
0.9870880457480736
 40
0.9922577995928155
 40
0.9965617705992589
 40
1.0
 40
1.0
 40
1.0
 40
1.0
 10
-138.6649093047891
 20
193.5760983953296
 30
0.0
 10
-138.3413440960806
 20
193.7621373998913
 30
0.0
 10
-137.6353994860882
 20
194.1680315720211
 30
0.0
 10
-136.4775082239793
 20
194.8213228030468
 30
0.0
 10
-135.1306476709938
 20
195.568620983191
 30
0.0
 10
-133.5891292005051
 20
196.4063930726513
 30
0.0
 10
-131.847854177121
 20
197.3313030429834
 30
0.0
 10
-129.9008681002462
 20
198.3393365005117
 30
0.0
 10
-127.7418955604692
 20
199.4260610299134
 30
0.0
 10
-125.3642189611388
 20
200.5865141256026
 30
0.0
 10
-122.1455208668935
 20
202.1056509793801
 30
0.0
 10
-118.202257915122
 20
203.87786315886
 30
0.0
 10
-113.6579029071562
 20
205.7980793423469
 30
0.0
 10
-109.3236547085199
 20
207.5249706109432
 30
0.0
 10
-103.3910319532905
 20
209.7598230065898
 30
0.0
 10
-95.63610841592087
 20
212.4281686783976
 30
0.0
 10
-86.26919352789795
 20
215.2486241942328
 30
0.0
 10
-76.11002419495323
 20
217.9271067043484
 30
0.0
 10
-62.15082702962706
 20
221.0637679090349
 30
0.0
 10
-43.58098721148937
 20
224.1577246586703
 30
0.0
 10
-24.16802004138814
 20
226.0374539143408
 30
0.0
 10
-9.291806035534627
 20
226.6693894458185
 30
0.0
 10
0.6569755718968021
 20
226.7637599269964
 30
0.0
 10
10.73078173737582
 20
226.625751976451
 30
0.0
 10
25.16175555521071
 20
225.9585639161026
 30
0.0
 10
43.91656500179678
 20
224.0876382284652
 30
0.0
 10
64.53975602238125
 20
220.6651987222852
 30
0.0
 10
81.17629861174504
 20
216.7282692249368
 30
0.0
 10
94.14829887252381
 20
212.9007686228099
 30
0.0
 10
103.238454877545
 20
209.8367428179903
 30
0.0
 10
112.5414212563847
 20
206.3111073996598
 30
0.0
 10
122.8755856130283
 20
201.8875053242692
 30
0.0
 10
131.8039544983625
 20
197.4406154159548
 30
0.0
 10
138.6741913541901
 20
193.5973007666013
 30
0.0
 10
145.3463599379156
 20
189.6236223101336
 30
0.0
 10
155.1206334963679
 20
183.0862128667364
 30
0.0
 10
165.7414341829305
 20
174.3836696505058
 30
0.0
 10
174.8156459342172
 20
165.1151559495587
 30
0.0
 10
181.6420199714081
 20
156.5333831689181
 30
0.0
 10
187.1321691691821
 20
147.7891117769784
 30
0.0
 10
191.3456023741707
 20
138.8725075081202
 30
0.0
 10
194.3051288938226
 20
129.7416705359334
 30
0.0
 10
195.9742412935553
 20
120.3637427997721
 30
0.0
 10
196.2808088589683
 20
110.8091588263782
 30
0.0
 10
195.1603813265431
 20
101.0703373423605
 30
0.0
 10
192.5884179468904
 20
91.46705079995291
 30
0.0
 10
188.5889306625363
 20
82.00126033090379
 30
0.0
 10
183.2792301811068
 20
72.8732009271516
 30
0.0
 10
177.6964775663188
 20
65.45336030871118
 30
0.0
 10
172.6071280556882
 20
59.72524517692479
 30
0.0
 10
168.6323846517315
 20
55.68266260625372
 30
0.0
 10
164.2654109977879
 20
51.63124023540237
 30
0.0
 10
159.8186231910675
 20
47.86837987593992
 30
0.0
 10
154.8046111667251
 20
43.97973901594966
 30
0.0
 10
150.5067631511429
 20
40.9191518895837
 30
0.0
 10
146.7946021695879
 20
38.45127780494818
 30
0.0
 10
144.3008065067766
 20
36.85959974850847
 30
0.0
 10
142.1229565738155
 20
35.51855953122314
 30
0.0
 10
140.2828300331869
 20
34.41691488364378
 30
0.0
 10
139.1624157893785
 20
33.76602859253619
 30
0.0
 10
138.6648516614212
 20
33.47697686758361
 30
0.0
  0
SPLINE
  5
72
330
1F
100
AcDbEntity
  8
0
  6
Continuous
 62
     7
370
    25
100
AcDbSpline
210
0.0
220
0.0
230
1.0
 70
     8
 71
     3
 72
    64
 73
    60
 74
     0
 42
0.00000001
 43
0.00000001
 40
0.0
 40
0.0
 40
0.0
 40
0.0
 40
0.0022461148779263
 40
0.0045386600335685
 40
0.0068776399421067
 40
0.0092630590832373
 40
0.0116949218860081
 40
0.0141732326715153
 40
0.0166979955942513
 40
0.0192692145826908
 40
0.0218868932797611
 40
0.0245510349839206
 40
0.0272616425916679
 40
0.0300187185423327
 40
0.0328222647660648
 40
0.0424540827548742
 40
0.0513426245905581
 40
0.059487703936265
 40
0.0668891779907786
 40
0.076200485661561
 40
0.1020622241792954
 40
0.1199494111721437
 40
0.138181684325371
 40
0.1657651298266565
 40
0.1936701164351595
 40
0.2217936569830971
 40
0.2500277620789627
 40
0.2829558667328859
 40
0.3157088321876987
 40
0.3481170424585473
 40
0.3800214998272934
 40
0.4112781242258494
 40
0.4417609972310299
 40
0.4713644233064861
 40
0.5000038126795735
 40
0.5286432020526574
 40
0.5582466281281033
 40
0.5887295011332616
 40
0.6199861255313096
 40
0.651890582899538
 40
0.6842987931703508
 40
0.7170517586251217
 40
0.7499798632773884
 40
0.7829079679296546
 40
0.8156609333844255
 40
0.848069143655238
 40
0.8683203574631639
 40
0.8799829264328916
 40
0.8920782661007058
 40
0.9112485126873363
 40
0.9279100091527718
 40
0.9417400429387275
 40
0.9553317544686643
 40
0.9713514138762418
 40
0.9794348039807719
 40
0.986341262614735
 40
0.9920708987391661
 40
0.9966237955934006
 40
1.0
 40
1.0
 40
1.0
 40
1.0
 10
-135.0467234161623
 20
191.4873587417844
 30
0.0
 10
-135.3636839962765
 20
191.3036997299263
 30
0.0
 10
-136.0041571667802
 20
190.9325852223305
 30
0.0
 10
-136.9658115401715
 20
190.3651449298173
 30
0.0
 10
-137.9400911348487
 20
189.7823741182385
 30
0.0
 10
-138.9258647576306
 20
189.1836888348815
 30
0.0
 10
-139.9228076140994
 20
188.5689784606885
 30
0.0
 10
-140.9303541287497
 20
187.9380013003997
 30
0.0
 10
-141.9479866255208
 20
187.290551685972
 30
0.0
 10
-142.9751553494538
 20
186.6264141480232
 30
0.0
 10
-144.0113002011992
 20
185.9453764432348
 30
0.0
 10
-145.055844265363
 20
185.2472258904232
 30
0.0
 10
-146.1081957261173
 20
184.5317521258194
 30
0.0
 10
-147.167745097788
 20
183.7987412005684
 30
0.0
 10
-149.0935296817816
 20
182.4426475115031
 30
0.0
 10
-151.7320594852013
 20
180.508812914112
 30
0.0
 10
-154.9081794622502
 20
178.036326083315
 30
0.0
 10
-157.7126532317791
 20
175.7265823384987
 30
0.0
 10
-160.4655694731905
 20
173.3374542167409
 30
0.0
 10
-164.9915564344773
 20
169.1750835868625
 30
0.0
 10
-170.1358745023443
 20
163.8099341833364
 30
0.0
 10
-175.3806883449478
 20
157.3245573215719
 30
0.0
 10
-180.1065942652596
 20
150.492661049501
 30
0.0
 10
-184.5819596962593
 20
142.3736157302187
 30
0.0
 10
-188.2490230335971
 20
132.9455350857743
 30
0.0
 10
-190.4839480267518
 20
123.2928335171653
 30
0.0
 10
-191.2764365711739
 20
112.9843373291412
 30
0.0
 10
-190.3037852903664
 20
102.1391619244522
 30
0.0
 10
-187.2722809637345
 20
90.93348246074454
 30
0.0
 10
-182.325427911157
 20
80.07999756686235
 30
0.0
 10
-175.612976622871
 20
69.73250205541562
 30
0.0
 10
-167.328848224043
 20
60.02012802242292
 30
0.0
 10
-157.6978693690884
 20
51.04335132042264
 30
0.0
 10
-146.9618327974554
 20
42.87229574002979
 30
0.0
 10
-135.2276976322403
 20
35.45968383521637
 30
0.0
 10
-122.3872965251071
 20
28.68571437148561
 30
0.0
 10
-108.2330792085179
 20
22.4879286347414
 30
0.0
 10
-92.68316739556494
 20
16.92808294797699
 30
0.0
 10
-75.85900616157149
 20
12.14574726023009
 30
0.0
 10
-57.93468090942039
 20
8.270737912914578
 30
0.0
 10
-39.13391684104627
 20
5.414969850852214
 30
0.0
 10
-19.72276501115552
 20
3.664939554416172
 30
0.0
 10
0.0017161861856949
 20
3.075289185429264
 30
0.0
 10
19.72635743389034
 20
3.664858412164587
 30
0.0
 10
39.13709737635399
 20
5.414576985201022
 30
0.0
 10
55.68218466732055
 20
7.928030508836906
 30
0.0
 10
67.81454575703894
 20
10.4049593364428
 30
0.0
 10
75.95389166706033
 20
12.33763908195577
 30
0.0
 10
83.76673455188853
 20
14.39158686838107
 30
0.0
 10
92.28694364573394
 20
16.93100900757755
 30
0.0
 10
100.8436628723747
 20
19.84391689164793
 30
0.0
 10
108.2152688790939
 20
22.63607125263011
 30
0.0
 10
115.2672099744669
 20
25.56563140285848
 30
0.0
 10
121.1762534190761
 20
28.26950371324373
 30
0.0
 10
125.8861383083112
 20
30.59758055393581
 30
0.0
 10
128.9690919026789
 20
32.19528115291759
 30
0.0
 10
131.4798608432861
 20
33.55015721850685
 30
0.0
 10
133.4461581143378
 20
34.64429483588119
 30
0.0
 10
134.5706389767676
 20
35.28942607288794
 30
0.0
 10
135.0494419479977
 20
35.56412239136932
 30
0.0
  0
SPLINE
  5
73
330
1F
100
AcDbEntity
  8
0
  6
Continuous
 62
     7
370
    25
100
AcDbSpline
210
0.0
220
0.0
230
1.0
 70
     8
 71
     3
 72
    62
 73
    58
 74
     0
 42
0.00000001
 43
0.00000001
 40
0.0
 40
0.0
 40
0.0
 40
0.0
 40
0.0021047892884012
 40
0.0043935045924428
 40
0.0068661517938831
 40
0.0095227382460969
 40
0.0123632726626879
 40
0.0153877649105079
 40
0.0185962257014369
 40
0.0318282065759242
 40
0.0376138851066922
 40
0.0573100939512728
 40
0.0768264791031655
 40
0.0835090066155337
 40
0.096972889475673
 40
0.117434249855071
 40
0.1381771646933083
 40
0.1591626400850435
 40
0.1877864680368525
 40
0.2231260154953086
 40
0.2417101897844593
 40
0.2554049874921107
 40
0.2655874868958348
 40
0.2876551954615056
 40
0.3250106217847994
 40
0.3618553498922526
 40
0.3800221998268613
 40
0.3979742191979818
 40
0.4331362867769681
 40
0.4671874471284602
 40
0.4999946738386957
 40
0.5328019005489356
 40
0.5668530609004411
 40
0.5931348992464287
 40
0.6199733692908873
 40
0.647288243602147
 40
0.6749894570347622
 40
0.7029785733082999
 40
0.7311506846988146
 40
0.7593966652368205
 40
0.7876056628897807
 40
0.8158152623563211
 40
0.8434760945988832
 40
0.8709302038329517
 40
0.89793690033707
 40
0.9111771489058828
 40
0.9244182518829697
 40
0.9360179555637141
 40
0.9502950486143423
 40
0.9590015926546178
 40
0.9755050094936322
 40
0.9794831014519746
 40
0.9835029414804716
 40
0.9875645371770861
 40
0.9916679002266912
 40
0.9958130471293135
 40
1.0
 40
1.0
 40
1.0
 40
1.0
 10
135.0494419479977
 20
35.5641223913693
 30
0.0
 10
135.3464441707379
 20
35.73623981297694
 30
0.0
 10
135.966402014863
 20
36.09551505560562
 30
0.0
 10
136.9268159823468
 20
36.66181863747983
 30
0.0
 10
137.9569783284997
 20
37.27780066334579
 30
0.0
 10
139.054342961617
 20
37.9448246365958
 30
0.0
 10
140.2170230435627
 20
38.66383322278165
 30
0.0
 10
141.4427215589375
 20
39.43597166212677
 30
0.0
 10
144.0439454337791
 20
41.10713519369629
 30
0.0
 10
146.9287793499979
 20
43.05978422574046
 30
0.0
 10
151.7741930669767
 20
46.54458552039274
 30
0.0
 10
157.124050355554
 20
50.72502918868906
 30
0.0
 10
162.1160624071539
 20
55.17422337457521
 30
0.0
 10
166.1495064381091
 20
59.11611442047282
 30
0.0
 10
170.0573355823847
 20
63.22620299735004
 30
0.0
 10
174.8019132990878
 20
68.91577777750784
 30
0.0
 10
179.4628868398924
 20
75.57602361106753
 30
0.0
 10
183.8698155394181
 20
83.29353517334526
 30
0.0
 10
187.9196018810197
 20
92.82905342186841
 30
0.0
 10
190.2287420733356
 20
102.2852814959701
 30
0.0
 10
190.976783621383
 20
110.0818765960944
 30
0.0
 10
191.0149088080096
 20
114.9844998246457
 30
0.0
 10
190.7139769703385
 20
120.2855484340062
 30
0.0
 10
189.5503022495137
 20
128.2978310371884
 30
0.0
 10
186.1563997116482
 20
139.2623574443507
 30
0.0
 10
180.7994971727176
 20
149.4919065182755
 30
0.0
 10
175.38793657458
 20
157.3170575031178
 30
0.0
 10
169.3571180329472
 20
164.7758220115109
 30
0.0
 10
160.6779513118548
 20
173.5261172942462
 30
0.0
 10
148.6572324645136
 20
183.0669022576001
 30
0.0
 10
135.2874023283597
 20
191.6248022345765
 30
0.0
 10
120.4638214926616
 20
199.3427849249899
 30
0.0
 10
105.3730487323437
 20
205.6787604158305
 30
0.0
 10
90.35460749475553
 20
210.8056758397657
 30
0.0
 10
75.86013664473408
 20
214.8538597541281
 30
0.0
 10
60.55658499035344
 20
218.2351560846414
 30
0.0
 10
44.58252051139378
 20
220.8780488107257
 30
0.0
 10
28.10067187315203
 20
222.7240637235732
 30
0.0
 10
11.2924064447694
 20
223.7311210891855
 30
0.0
 10
-5.648412493647707
 20
223.8757268636679
 30
0.0
 10
-22.55231827909007
 20
223.153538781059
 30
0.0
 10
-39.1633266011557
 20
221.5805996092107
 30
0.0
 10
-55.32492206516216
 20
219.1961604204255
 30
0.0
 10
-70.84035988640146
 20
216.0592535692808
 30
0.0
 10
-83.20311367638729
 20
212.8516804483291
 30
0.0
 10
-92.6630380314928
 20
209.969033391149
 30
0.0
 10
-99.24543313316791
 20
207.7571063609973
 30
0.0
 10
-105.8475030783703
 20
205.3346241456408
 30
0.0
 10
-111.5296009693602
 20
203.0572296361702
 30
0.0
 10
-117.8486253270421
 20
200.3242745566128
 30
0.0
 10
-122.3798212344246
 20
198.1981135641373
 30
0.0
 10
-126.0799131563451
 20
196.3446544228167
 30
0.0
 10
-127.8811909246222
 20
195.4192577212241
 30
0.0
 10
-129.6805818122174
 20
194.4710611621033
 30
0.0
 10
-131.4765783539488
 20
193.4994582704421
 30
0.0
 10
-133.2702700176427
 20
192.5053815964299
 30
0.0
 10
-134.4525948612268
 20
191.8278328842674
 30
0.0
 10
-135.0467234161663
 20
191.487358741782
 30
0.0
  0
SPLINE
  5
74
330
1F
100
AcDbEntity
  8
0
  6
Continuous
 62
     7
370
    25
100
AcDbSpline
210
0.0
220
0.0
230
1.0
 70
     8
 71
     3
 72
    14
 73
    10
 74
     0
 42
0.00000001
 43
0.00000001
 40
0.0
 40
0.0
 40
0.0
 40
0.0
 40
0.25
 40
0.25
 40
0.5
 40
0.5
 40
0.75
 40
0.75
 40
1.0
 40
1.0
 40
1.0
 40
1.0
 10
-135.046725851018
 20
191.487357336172
 30
0.0
 10
-134.7526048305213
 20
191.3175649119244
 30
0.0
 10
-134.4415028707389
 20
191.0836972971781
 30
0.0
 10
-133.8347177376686
 20
190.4957157402527
 30
0.0
 10
-133.5400440641849
 20
190.1417633823804
 30
0.0
 10
-133.0239553924034
 20
189.368026571507
 30
0.0
 10
-132.8034540876048
 20
188.9496119573203
 30
0.0
 10
-132.4683639835393
 20
188.1255037280204
 30
0.0
 10
-132.3536430387788
 20
187.7209638865292
 30
0.0
 10
-132.2885141886096
 20
187.3521572978269
 30
0.0
  0
LWPOLYLINE
  5
76
330
1F
100
AcDbEntity
  8
0
  6
Continuous
 62
     7
370
    25
100
AcDbPolyline
 90
       32
 70
   128
 43
0.0
 10
-24.7487361079
 20
42.2604016823
 10
-27.1255467058
 20
40.7416928634
 10
-29.2240124863
 20
39.0919626339
 10
-31.0226003505
 20
37.3281394586
 10
-32.502854353
 20
35.4683225502
 10
-33.6495850845
 20
33.5315961471
 10
-34.4510255359
 20
31.537833683
 10
-34.8989518436
 20
29.5074938589
 10
-34.9887676776
 20
27.4614107091
 10
-34.7195514057
 20
25.4205798156
 10
-34.0940655513
 20
23.4059428651
 10
-33.1187284457
 20
21.4381727591
 10
-31.8035483675
 20
19.5374614818
 10
-30.1620208441
 20
17.7233129032
 10
-28.2109901693
 20
16.0143426427
 10
-25.9704765582
 20
14.4280870478
 10
-23.4634707124
 20
12.9808232476
 10
-20.7156979046
 20
11.6874021273
 10
-17.7553540022
 20
10.5610959378
 10
-14.6128161398
 20
9.613462105
 10
-11.3203310088
 20
8.8542246343
 10
-7.911683962
 20
8.2911743296
 10
-4.4218523311
 20
7.9300888491
 10
-0.8866465114
 20
7.7746734184
 10
2.6576575015
 20
7.8265228101
 10
6.1746903519
 20
8.0851049793
 10
9.6283625231
 20
8.5477665231
 10
12.9832346651
 20
9.2097599078
 10
16.2048812496
 20
10.0642921855
 10
19.2602438227
 20
11.1025946987
 10
22.1179702298
 20
12.3140130583
 10
24.7487363307
 20
13.6861164727
  0
SPLINE
  5
77
330
1F
100
AcDbEntity
  8
0
  6
Continuous
 62
     7
370
    25
100
AcDbSpline
210
0.0
220
0.0
230
1.0
 70
     8
 71
     3
 72
     8
 73
     4
 74
     0
 42
0.00000001
 43
0.00000001
 40
0.0
 40
0.0
 40
0.0
 40
0.0
 40
1.0
 40
1.0
 40
1.0
 40
1.0
 10
-24.74873633070816
 20
42.26040155369578
 30
0.0
 10
-99.3660130602596
 20
88.59796953895872
 30
0.0
 10
-120.9370743037436
 20
123.0722012830961
 30
0.0
 10
-132.2885141876208
 20
187.3521572973563
 30
0.0
  0
SPLINE
  5
7B
330
1F
100
AcDbEntity
  8
0
  6
Continuous
 62
     7
370
    25
100
AcDbSpline
210
0.0
220
0.0
230
1.0
 70
     8
 71
     3
 72
    38
 73
    34
 74
     0
 42
0.00000001
 43
0.00000001
 40
0.0
 40
0.0
 40
0.0
 40
0.0
 40
0.0625
 40
0.0625
 40
0.125
 40
0.125
 40
0.1875
 40
0.1875
 40
0.25
 40
0.25
 40
0.3125
 40
0.3125
 40
0.375
 40
0.375
 40
0.4375
 40
0.4375
 40
0.5
 40
0.5
 40
0.5625
 40
0.5625
 40
0.625
 40
0.625
 40
0.6875
 40
0.6875
 40
0.75
 40
0.75
 40
0.8125
 40
0.8125
 40
0.875
 40
0.875
 40
0.9375
 40
0.9375
 40
1.0
 40
1.0
 40
1.0
 40
1.0
 10
132.2886378466802
 20
187.3529880321821
 30
0.0
 10
128.3910439483242
 20
189.6030019465743
 30
0.0
 10
124.249252271763
 20
191.7948748867655
 30
0.0
 10
115.4843216428059
 20
196.0172780430164
 30
0.0
 10
110.8611189634374
 20
198.047744628332
 30
0.0
 10
101.1558113312285
 20
201.9006604429146
 30
0.0
 10
96.0736739025092
 20
203.723030910292
 30
0.0
 10
85.48998373057542
 20
207.113712470979
 30
0.0
 10
79.9884390926005
 20
208.6819358586131
 30
0.0
 10
68.62286512608311
 20
211.5214367439497
 30
0.0
 10
62.75889127424687
 20
212.7926258251485
 30
0.0
 10
50.74190115442575
 20
215.0010034035767
 30
0.0
 10
44.58898865729017
 20
215.9381127362805
 30
0.0
 10
32.08168338047278
 20
217.4496615890612
 30
0.0
 10
25.72743638093944
 20
218.0240412788141
 30
0.0
 10
12.91536897147922
 20
218.791970562162
 30
0.0
 10
6.457723021341119
 20
218.985487913241
 30
0.0
 10
-6.457752592713324
 20
218.9854517726174
 30
0.0
 10
-12.91539760536345
 20
218.7918982810638
 30
0.0
 10
-25.72746129478969
 20
218.0238968834048
 30
0.0
 10
-32.0817055119332
 20
217.4494812200971
 30
0.0
 10
-44.58900346661373
 20
215.9378607449895
 30
0.0
 10
-50.74191142429213
 20
215.0007157637489
 30
0.0
 10
-62.75889084652733
 20
212.7922673545187
 30
0.0
 10
-68.62285854061832
 20
211.5210430912222
 30
0.0
 10
-79.98841875237606
 20
208.681472426676
 30
0.0
 10
-85.4899557937649
 20
207.1132144420201
 30
0.0
 10
-96.07362954100574
 20
203.7224643643326
 30
0.0
 10
-101.1557581420429
 20
201.9000599769898
 30
0.0
 10
-110.86104711048
 20
198.0470770633961
 30
0.0
 10
-115.4842399541404
 20
196.0165772989823
 30
0.0
 10
-124.2491501295117
 20
191.7941085617894
 30
0.0
 10
-128.3909300883496
 20
189.6022038547605
 30
0.0
 10
-132.2885141876509
 20
187.3521572975266
 30
0.0
  0
LWPOLYLINE
  5
7C
330
1F
100
AcDbEntity
  8
0
  6
Continuous
 62
     7
370
    25
100
AcDbPolyline
 90
       16
 70
   128
 43
0.0
 10
24.7487373416
 20
42.2604009701
 10
27.200108711
 20
40.6887214756
 10
29.3534699819
 20
38.9777287062
 10
31.1852284764
 20
37.1461686578
 10
32.6753150641
 20
35.2141082865
 10
33.8074040435
 20
33.2027156512
 10
34.5690920103
 20
31.1340279917
 10
34.9520337514
 20
29.030710284
 10
34.9520336766
 20
26.9158069183
 10
34.5690917867
 20
24.8124892196
 10
33.8074036735
 20
22.7438015781
 10
32.6753145518
 20
20.7324089695
 10
31.1852278274
 20
18.8003486333
 10
29.3534692033
 20
16.9687886281
 10
27.2001078114
 20
15.2577959095
 10
24.7487363307
 20
13.6861164727
  0
LWPOLYLINE
  5
7D
330
1F
100
AcDbEntity
  8
0
  6
Continuous
 62
     7
370
    25
100
AcDbPolyline
 90
       16
 70
   128
 43
0.0
 10
-24.7487363307
 20
42.2604015537
 10
-22.0262126499
 20
43.6755479896
 10
-19.0623651865
 20
44.9186568705
 10
-15.8896664719
 20
45.976108436
 10
-12.5428772554
 20
46.8363170262
 10
-9.058665658
 20
47.4898580162
 10
-5.4752054292
 20
47.9295710746
 10
-1.8317577071
 20
48.1506386132
 10
1.8317591347
 20
48.15063857
 10
5.4752068412
 20
47.9295709455
 10
9.0586670389
 20
47.4898578026
 10
12.54287859
 20
46.8363167305
 10
15.8896677457
 20
45.9761080614
 10
19.0623663854
 20
44.918656421
 10
22.0262137608
 20
43.6755474702
 10
24.7487373416
 20
42.2604009701
  0
LWPOLYLINE
  5
7E
330
1F
100
AcDbEntity
  8
0
  6
Continuous
 62
     7
370
    25
100
AcDbPolyline
 90
       25
 70
   128
 43
0.0
 10
24.7487373416
 20
42.2300326764
 10
22.1179713457
 20
43.6021361491
 10
19.2602450333
 20
44.8135545734
 10
16.2048825437
 20
45.8518571569
 10
12.9832360305
 20
46.70638951
 10
9.6283639464
 20
47.3683829745
 10
6.174691819
 20
47.8310446016
 10
2.6576589979
 20
48.0896268568
 10
-0.886645001
 20
48.1414763364
 10
-4.4218508223
 20
47.9860609945
 10
-7.9116824704
 20
47.6249756029
 10
-11.3203295502
 20
47.0619253862
 10
-14.61281473
 20
46.3026880016
 10
-17.7553526563
 20
45.3550542522
 10
-20.7156966376
 20
44.2287481425
 10
-23.4634695385
 20
42.9353270973
 10
-25.9704754908
 20
41.4880633669
 10
-28.2109892209
 20
39.9018078356
 10
-30.1620200261
 20
38.1928376317
 10
-31.80354769
 20
36.3786891021
 10
-33.1187279176
 20
34.4779778656
 10
-34.0940651799
 20
32.5102077916
 10
-34.7195511968
 20
30.4955708638
 10
-34.9887676354
 20
28.4547399835
 10
-35.0000000001
 20
27.9428907195
  0
LWPOLYLINE
  5
7F
330
1F
100
AcDbEntity
  8
0
  6
Continuous
 62
     7
370
    25
100
AcDbPolyline
 90
        9
 70
   128
 43
0.0
 10
35.0000000001
 20
27.9428907195
 10
34.8989519707
 20
29.4771246019
 10
34.451025833
 20
31.5074644325
 10
33.6495855505
 20
33.5012269132
 10
32.5028549851
 20
35.437953343
 10
31.0226011441
 20
37.2977702877
 10
29.2240134352
 20
39.061593509
 10
27.125547802
 20
40.7113237936
 10
24.7487373416
 20
42.2300326764
  0
LWPOLYLINE
  5
81
330
1F
100
AcDbEntity
  8
0
  6
Continuous
 62
     7
370
    25
100
AcDbPolyline
 90
       25
 70
   128
 43
0.0
 10
-14.8492424049
 20
12.0217382385
 10
-12.7839900092
 20
10.9761675841
 10
-10.5
 20
10.0951611095
 10
-8.0363520797
 20
9.3937930798
 10
-5.4351999471
 20
8.8840640963
 10
-2.7410500366
 20
8.5746957634
 10
0.0
 20
8.4709814589
 10
2.7410500366
 20
8.5746957634
 10
5.4351999471
 20
8.8840640963
 10
8.0363520797
 20
9.3937930798
 10
10.5
 20
10.0951611095
 10
12.7839900092
 20
10.9761675841
 10
14.8492424049
 20
12.0217382385
 10
16.6604201461
 20
13.2139830689
 10
18.1865334794
 20
14.5325024358
 10
19.4014701827
 20
15.9547361071
 10
20.284442352
 20
17.4563492704
 10
20.8203420888
 20
19.0116489083
 10
21.0
 20
20.5940234126
 10
20.8203420888
 20
22.176397917
 10
20.284442352
 20
23.7316975549
 10
19.4014701827
 20
25.2333107182
 10
18.1865334794
 20
26.6555443895
 10
16.6604201461
 20
27.9740637564
 10
14.8492424049
 20
29.1663085868
  0
LWPOLYLINE
  5
83
330
1F
100
AcDbEntity
  8
0
  6
Continuous
 62
     7
370
    25
100
AcDbPolyline
 90
       25
 70
   128
 43
0.0
 10
14.8492424049
 20
29.1663085868
 10
12.7839900091
 20
30.2118792411
 10
10.5
 20
31.0928857157
 10
8.0363520796
 20
31.7942537455
 10
5.4351999471
 20
32.303982729
 10
2.7410500366
 20
32.6133510619
 10
0.0
 20
32.7170653664
 10
-2.7410500366
 20
32.6133510619
 10
-5.4351999471
 20
32.303982729
 10
-8.0363520796
 20
31.7942537455
 10
-10.5
 20
31.0928857157
 10
-12.7839900091
 20
30.2118792411
 10
-14.8492424049
 20
29.1663085868
 10
-16.6604201461
 20
27.9740637563
 10
-18.1865334794
 20
26.6555443895
 10
-19.4014701827
 20
25.2333107182
 10
-20.284442352
 20
23.7316975549
 10
-20.8203420888
 20
22.176397917
 10
-20.9999999999
 20
20.5940234126
 10
-20.8203420888
 20
19.0116489083
 10
-20.284442352
 20
17.4563492704
 10
-19.4014701827
 20
15.9547361071
 10
-18.1865334794
 20
14.5325024358
 10
-16.6604201461
 20
13.2139830689
 10
-14.8492424049
 20
12.0217382385
  0
SPLINE
  5
84
330
1F
100
AcDbEntity
  8
0
  6
Continuous
 62
     7
370
    25
100
AcDbSpline
210
0.0
220
0.0
230
1.0
 70
     8
 71
     3
 72
    11
 73
     7
 74
     0
 42
0.00000001
 43
0.00000001
 40
0.0
 40
0.0
 40
0.0
 40
0.0
 40
0.0135000270865723
 40
0.2728584630462341
 40
0.5269815710271638
 40
1.0
 40
1.0
 40
1.0
 40
1.0
 10
-140.6628499045115
 20
193.7705287209013
 30
0.0
 10
-140.6565097790261
 20
193.7757452920118
 30
0.0
 10
-140.5283650809183
 20
193.8811810490261
 30
0.0
 10
-140.2025023948484
 20
193.9526366033465
 30
0.0
 10
-139.5594940942971
 20
193.9877025478709
 30
0.0
 10
-139.0174915469317
 20
193.7383237278864
 30
0.0
 10
-138.6649093047891
 20
193.5760983953296
 30
0.0
  0
SPLINE
  5
85
330
1F
100
AcDbEntity
  8
0
  6
Continuous
 62
     7
370
    25
100
AcDbSpline
210
0.0
220
0.0
230
1.0
 70
     8
 71
     3
 72
    38
 73
    34
 74
     0
 42
0.00000001
 43
0.00000001
 40
0.0
 40
0.0
 40
0.0
 40
0.0
 40
0.0063203111247662
 40
0.0394392564870312
 40
0.0725627794439381
 40
0.1056892676963254
 40
0.1388145881132963
 40
0.1719359278144444
 40
0.2050554942598655
 40
0.2381777767224909
 40
0.2713022680616844
 40
0.3044259232660577
 40
0.3375469842835701
 40
0.3706682689607068
 40
0.4037924366752635
 40
0.4369174841706372
 40
0.4700401179439855
 40
0.5031595881769425
 40
0.5362803016819273
 40
0.5694047224571247
 40
0.602530337947743
 40
0.6356533041052913
 40
0.6687722759274362
 40
0.7018916221944924
 40
0.7350154963420854
 40
0.768142232103317
 40
0.8012676755611725
 40
0.8343890268676759
 40
0.8675085426590691
 40
0.9006307829582525
 40
0.9337552743052584
 40
0.9668789549842793
 40
1.0
 40
1.0
 40
1.0
 40
1.0
 10
-199.9914220391901
 20
112.0586968852504
 30
0.0
 10
-200.0367096158315
 20
111.4822898053633
 30
0.0
 10
-200.3193077847471
 20
107.8854626530527
 30
0.0
 10
-199.6239320504847
 20
101.2561294502277
 30
0.0
 10
-197.8526316245329
 20
92.24167605736346
 30
0.0
 10
-194.7587086107778
 20
83.33583574806467
 30
0.0
 10
-190.5024418991273
 20
74.59580065854982
 30
0.0
 10
-185.0667842262354
 20
66.07534823623566
 30
0.0
 10
-178.4789718642618
 20
57.83100097722846
 30
0.0
 10
-170.7866849426426
 20
49.91161373133564
 30
0.0
 10
-162.0471078394224
 20
42.36269686569754
 30
0.0
 10
-152.3143864146365
 20
35.2303095368499
 30
0.0
 10
-141.6430806696386
 20
28.56041822586086
 30
0.0
 10
-130.0890757197825
 20
22.400035926449
 30
0.0
 10
-117.7338603144488
 20
16.78143243580748
 30
0.0
 10
-104.6571362432492
 20
11.73610337917207
 30
0.0
 10
-90.9387839011354
 20
7.295451669359701
 30
0.0
 10
-76.65768296644028
 20
3.492099312607855
 30
0.0
 10
-61.89853860645071
 20
0.3551490825227516
 30
0.0
 10
-46.7588909209143
 20
-2.105507247469593
 30
0.0
 10
-31.33291109902597
 20
-3.878019648675818
 30
0.0
 10
-15.71531247807503
 20
-4.9509488926852
 30
0.0
 10
-0.0004950056345572
 20
-5.312527913276272
 30
0.0
 10
15.71446805372574
 20
-4.950960512819943
 30
0.0
 10
31.33244626777155
 20
-3.878043272258811
 30
0.0
 10
46.75894039233571
 20
-2.105553848417374
 30
0.0
 10
61.89897840080486
 20
0.3551384121216195
 30
0.0
 10
76.65866506763693
 20
3.491949710612743
 30
0.0
 10
90.93881668203956
 20
7.295911840197372
 30
0.0
 10
104.66051953948
 20
11.73457127774791
 30
0.0
 10
117.7234929576831
 20
16.78770621006871
 30
0.0
 10
130.1283407418606
 20
22.37751876281382
 30
0.0
 10
137.7066682124749
 20
26.55627125566674
 30
0.0
 10
141.4956811892168
 20
28.64556437257255
 30
0.0
  0
LWPOLYLINE
  5
86
330
1F
100
AcDbEntity
  8
0
  6
Continuous
 62
     7
370
    25
100
AcDbPolyline
 90
       53
 70
   128
 43
0.0
 10
133.9637240243
 20
-72.236508698
 10
128.0762703765
 20
-75.4920554747
 10
121.9516489655
 20
-78.5983659767
 10
115.6012011802
 20
-81.549688032
 10
109.0366865878
 20
-84.3405564718
 10
102.2702611578
 20
-86.9658032502
 10
95.3144547524
 20
-89.4205670145
 10
88.1821479235
 20
-91.7003021076
 10
80.8865480614
 20
-93.8007869848
 10
73.4411649372
 20
-95.7181320318
 10
65.8597856863
 20
-97.448786767
 10
58.1564492777
 20
-98.9895464163
 10
50.3454205168
 20
-100.3375578474
 10
42.4411636305
 20
-101.4903248537
 10
34.4583154827
 20
-102.445712776
 10
26.4116584704
 20
-103.2019524558
 10
18.3160931496
 20
-103.7576435115
 10
10.1866106435
 20
-104.111756931
 10
2.038264882
 20
-104.2636369778
 10
-6.1138552745
 20
-104.2130024051
 10
-14.2546539765
 20
-103.9599469765
 10
-22.3690563389
 20
-103.5049392923
 10
-30.4420363569
 20
-102.848821922
 10
-38.45864473
 20
-101.992809844
 10
-46.4040365453
 20
-100.9384881954
 10
-54.2634987665
 20
-99.6878093373
 10
-62.0224774789
 20
-98.243089239
 10
-69.6666048404
 20
-96.6070031894
 10
-77.1817256871
 20
-94.7825808432
 10
-84.5539237454
 20
-92.7732006107
 10
-91.7695474017
 20
-90.5825834013
 10
-98.8152349823
 20
-88.2147857337
 10
-105.6779394961
 20
-85.6741922242
 10
-112.3449527942
 20
-82.9655074669
 10
-118.8039291031
 20
-80.0937473225
 10
-125.0429078855
 20
-77.0642296294
 10
-131.0503359893
 20
-73.882564357
 10
-136.8150890408
 20
-70.5546432169
 10
-142.3264920444
 20
-67.0866287527
 10
-147.5743391508
 20
-63.4849429289
 10
-152.5489125552
 20
-59.7562552384
 10
-157.2410004932
 20
-55.9074703522
 10
-161.6419142981
 20
-51.945715334
 10
-165.7435044908
 20
-47.8783264418
 10
-169.5381758705
 20
-43.7128355434
 10
-173.0189015795
 20
-39.4569561689
 10
-176.1792361153
 20
-35.1185692272
 10
-179.0133272657
 20
-30.7057084119
 10
-181.5159269466
 20
-26.2265453254
 10
-183.6824009195
 20
-21.6893743464
 10
-185.5087373734
 20
-17.1025972709
 10
-186.9915543536
 20
-12.4747077541
 10
-187.0254594974
 20
-12.3540555566
  0
SPLINE
  5
87
330
1F
100
AcDbEntity
  8
0
  6
Continuous
 62
     7
370
    25
100
AcDbSpline
210
0.0
220
0.0
230
1.0
 70
     8
 71
     3
 72
    21
 73
    17
 74
     0
 42
0.00000001
 43
0.00000001
 40
0.0
 40
0.0
 40
0.0
 40
0.0
 40
0.0217308776944777
 40
0.0946787995606961
 40
0.1678003447146351
 40
0.2409218881009733
 40
0.3138698046780102
 40
0.3864729298867803
 40
0.4585649336140606
 40
0.5299865267648357
 40
0.6005874302224437
 40
0.6840229034515877
 40
0.7658584222913523
 40
0.8459031305756564
 40
0.9239947647649698
 40
1.0
 40
1.0
 40
1.0
 40
1.0
 10
-184.6524837658609
 20
93.96090553569967
 30
0.0
 10
-184.8802311513209
 20
94.68738889533881
 30
0.0
 10
-185.8724988986981
 20
97.85258881770248
 30
0.0
 10
-186.7473203552011
 20
103.5406354405427
 30
0.0
 10
-187.2435688416874
 20
110.9827635967134
 30
0.0
 10
-186.7846180175697
 20
118.4311584915381
 30
0.0
 10
-185.4587406005696
 20
125.8249296698239
 30
0.0
 10
-183.2627586170099
 20
133.1145077955093
 30
0.0
 10
-180.2331033322047
 20
140.2500513476936
 30
0.0
 10
-176.4093478394836
 20
147.185973810576
 30
0.0
 10
-171.5454875786198
 20
154.3170891228863
 30
0.0
 10
-165.5287107871796
 20
161.5465076800423
 30
0.0
 10
-158.2796819836402
 20
168.7627809468856
 30
0.0
 10
-150.2624162930709
 20
175.4803524142711
 30
0.0
 10
-141.6656983222023
 20
181.709332877525
 30
0.0
 10
-135.3858996005823
 20
185.488271297369
 30
0.0
 10
-132.2885129966338
 20
187.3521579850862
 30
0.0
  0
SPLINE
  5
88
330
1F
100
AcDbEntity
  8
0
  6
Continuous
 62
     7
370
    25
100
AcDbSpline
210
0.0
220
0.0
230
1.0
 70
     8
 71
     3
 72
    10
 73
     6
 74
     0
 42
0.00000001
 43
0.00000001
 40
0.0
 40
0.0
 40
0.0
 40
0.0
 40
0.4157168985001514
 40
0.8561904723784511
 40
1.0
 40
1.0
 40
1.0
 40
1.0
 10
135.0494419479977
 20
35.56412239136932
 30
0.0
 10
134.7442421495665
 20
35.70312756559832
 30
0.0
 10
134.1156673657863
 20
35.98941591763683
 30
0.0
 10
133.4160233551086
 20
35.99884160920581
 30
0.0
 10
133.1413410415688
 20
35.77129808572688
 30
0.0
 10
133.0737335176566
 20
35.7152928263914
 30
0.0
  0
SPLINE
  5
89
330
1F
100
AcDbEntity
  8
0
  6
Continuous
 62
     7
370
    25
100
AcDbSpline
210
0.0
220
0.0
230
1.0
 70
     8
 71
     3
 72
     9
 73
     5
 74
     0
 42
0.00000001
 43
0.00000001
 40
0.0
 40
0.0
 40
0.0
 40
0.0
 40
0.24527240004553
 40
1.0
 40
1.0
 40
1.0
 40
1.0
 10
39.0520543283484
 20
6.384379257011942
 30
0.0
 10
37.88460012538963
 20
6.945755918194643
 30
0.0
 10
33.12477308108281
 20
9.234544469529794
 30
0.0
 10
28.35136166919518
 20
11.77144649542456
 30
0.0
 10
24.74873633070595
 20
13.68611647274775
 30
0.0
  0
LWPOLYLINE
  5
8A
330
1F
100
AcDbEntity
  8
0
  6
Continuous
 62
     7
370
    25
100
AcDbPolyline
 90
       16
 70
   128
 43
0.0
 10
186.9850480699
 20
-12.4977660288
 10
186.5750950105
 20
-13.8926363631
 10
184.9625165107
 20
-18.5726960546
 10
182.9978513458
 20
-23.2076951297
 10
180.6848393676
 20
-27.7888106043
 10
178.0278835259
 20
-32.3073220648
 10
175.0320414871
 20
-36.7546282676
 10
171.7030160069
 20
-41.1222635128
 10
168.0471440744
 20
-45.4019137582
 10
164.0713848497
 20
-49.5854324466
 10
159.7833064164
 20
-53.6648560123
 10
155.1910713755
 20
-57.6324190406
 10
150.3034213074
 20
-61.4805690498
 10
145.1296601319
 20
-65.2019808678
 10
139.6796363973
 20
-68.7895705755
 10
133.9637240243
 20
-72.236508698
  0
SPLINE
  5
8B
330
1F
100
AcDbEntity
  8
0
  6
Continuous
 62
     7
370
    25
100
AcDbSpline
210
0.0
220
0.0
230
1.0
 70
     8
 71
     3
 72
    18
 73
    14
 74
     0
 42
0.00000001
 43
0.00000001
 40
0.0
 40
0.0
 40
0.0
 40
0.0
 40
0.0981173718814799
 40
0.1962428549749513
 40
0.2943707411591815
 40
0.3924916934585569
 40
0.490604089215824
 40
0.588721425162366
 40
0.6868507126341262
 40
0.784983965947321
 40
0.8831091129576694
 40
0.9812213672421107
 40
1.0
 40
1.0
 40
1.0
 40
1.0
 10
141.4956811901173
 20
28.64556439551838
 30
0.0
 10
145.1148812457446
 20
30.83289790482409
 30
0.0
 10
152.3535805506929
 20
35.20774574692729
 30
0.0
 10
162.0366436337192
 20
42.36888501993364
 30
0.0
 10
170.789999122238
 20
49.90996651169164
 30
0.0
 10
178.4790277144515
 20
57.83132855569967
 30
0.0
 10
185.0679284446815
 20
66.07505870694078
 30
0.0
 10
190.5031513640625
 20
74.5956472644401
 30
0.0
 10
194.7591451579088
 20
83.3356597867465
 30
0.0
 10
197.8526153888969
 20
92.24155867314005
 30
0.0
 10
199.6236845219775
 20
101.2560910939483
 30
0.0
 10
200.3188487790857
 20
107.8871906054954
 30
0.0
 10
200.0360964468089
 20
111.4857659853986
 30
0.0
 10
199.9906720143009
 20
112.0638805606291
 30
0.0
  0
SPLINE
  5
8C
330
1F
100
AcDbEntity
  8
0
  6
Continuous
 62
     7
370
    25
100
AcDbSpline
210
0.0
220
0.0
230
1.0
 70
     8
 71
     3
 72
    21
 73
    17
 74
     0
 42
0.00000001
 43
0.00000001
 40
0.0
 40
0.0
 40
0.0
 40
0.0
 40
0.0250613876944462
 40
0.0977615975795695
 40
0.1706348405127696
 40
0.2435080811051958
 40
0.3162082840316509
 40
0.3885648661385805
 40
0.4604120623372162
 40
0.5315911246727688
 40
0.6019522845871319
 40
0.6851025414537261
 40
0.7666583560930548
 40
0.8464295329380733
 40
0.9242543692504354
 40
1.0
 40
1.0
 40
1.0
 40
1.0
 10
184.5493326485318
 20
93.61842836141443
 30
0.0
 10
184.8140203071284
 20
94.45901027073438
 30
0.0
 10
185.8465364901702
 20
97.73802384147193
 30
0.0
 10
186.7505259903999
 20
103.540874573193
 30
0.0
 10
187.2428807756603
 20
110.9833729822956
 30
0.0
 10
186.7849810464408
 20
118.4316999965709
 30
0.0
 10
185.4588288110815
 20
125.8255208227335
 30
0.0
 10
183.2629243270982
 20
133.1151173293955
 30
0.0
 10
180.2332512588211
 20
140.2506876031178
 30
0.0
 10
176.4095016386163
 20
147.186634520816
 30
0.0
 10
171.5456802300537
 20
154.3177164168756
 30
0.0
 10
165.5290080317629
 20
161.5470516751585
 30
0.0
 10
158.2801694206418
 20
168.7632047775148
 30
0.0
 10
150.2631219998475
 20
175.4806801169713
 30
0.0
 10
141.66663964196
 20
181.709587787378
 30
0.0
 10
135.3870141823101
 20
185.4884956727226
 30
0.0
 10
132.2897116839046
 20
187.3523681137987
 30
0.0
  0
LINE
  5
8E
330
1F
100
AcDbEntity
  8
0
  6
Continuous
 62
     7
370
    25
100
AcDbLine
 10
35.0000000001
 20
27.9428907195
 30
0.0
 11
35.0000000001
 21
27.9732590132
 31
0.0
  0
LINE
  5
8F
330
1F
100
AcDbEntity
  8
0
  6
Continuous
 62
     7
370
    25
100
AcDbLine
 10
-35.0000000001
 20
27.9732590132
 30
0.0
 11
-35.0000000001
 21
27.9428907195
 31
0.0
  0
LINE
  5
90
330
1F
100
AcDbEntity
  8
0
  6
Continuous
 62
     7
370
    25
100
AcDbLine
 10
-199.8951519389
 20
113.4589452049
 30
0.0
 11
-199.9914220392
 21
112.0586968853
 31
0.0
  0
LINE
  5
91
330
1F
100
AcDbEntity
  8
0
  6
Continuous
 62
     7
370
    25
100
AcDbLine
 10
-184.4806434929
 20
93.3902310688
 30
0.0
 11
-184.5515683576
 21
93.6257696224
 31
0.0
  0
LINE
  5
92
330
1F
100
AcDbEntity
  8
0
  6
Continuous
 62
     7
370
    25
100
AcDbLine
 10
187.0321001959
 20
-12.3303252838
 30
0.0
 11
186.9850480699
 21
-12.4977660288
 31
0.0
  0
LINE
  5
93
330
1F
100
AcDbEntity
  8
0
  6
Continuous
 62
     7
370
    25
100
AcDbLine
 10
199.9906720143
 20
112.0638805606
 30
0.0
 11
199.8898354027
 21
113.5309042116
 31
0.0
  0
LINE
  5
94
330
1F
100
AcDbEntity
  8
0
  6
Continuous
 62
     7
370
    25
100
AcDbLine
 10
183.9669662887
 20
91.6844150299
 30
0.0
 11
184.5493326485
 21
93.6184283614
 31
0.0
  0
LINE
  5
95
330
1F
100
AcDbEntity
  8
0
  6
Continuous
 62
     7
370
    25
100
AcDbLine
 10
24.7487373416
 20
42.2604009701
 30
0.0
 11
24.7487373416
 21
42.2300326764
 31
0.0
  0
LINE
  5
96
330
1F
100
AcDbEntity
  8
0
  6
Continuous
 62
     7
370
    25
100
AcDbLine
 10
14.8492424049
 20
29.1663085868
 30
0.0
 11
24.7487373416
 21
42.2300326764
 31
0.0
  0
ARC
  5
97
330
1F
100
AcDbEntity
  8
0
  6
Continuous
 62
     7
370
    25
100
AcDbCircle
 10
0.0
 20
-18.1371030157
 30
0.0
 40
32.76711624025901
100
AcDbArc
 50
64.842549829
 51
115.157450171
  0
ENDSEC
  0
SECTION
  2
OBJECTS
  0
DICTIONARY
  5
C
330
0
100
AcDbDictionary
281
     1
  3
ACAD_GROUP
350
D
  3
ACAD_LAYOUT
350
1A
  3
ACAD_MLINESTYLE
350
17
  3
ACAD_PLOTSETTINGS
350
19
  3
ACAD_PLOTSTYLENAME
350
E
  3
ACAD_SCALELIST
350
47
  3
DWGPROPS
350
98
  0
DICTIONARY
  5
D
102
{ACAD_REACTORS
330
C
102
}
330
C
100
AcDbDictionary
281
     1
  0
DICTIONARY
  5
1A
102
{ACAD_REACTORS
330
C
102
}
330
C
100
AcDbDictionary
281
     1
  3
Layout1
350
1E
  3
Layout2
350
26
  3
Model
350
22
  0
DICTIONARY
  5
17
102
{ACAD_REACTORS
330
C
102
}
330
C
100
AcDbDictionary
281
     1
  3
Standard
350
18
  0
DICTIONARY
  5
19
102
{ACAD_REACTORS
330
C
102
}
330
C
100
AcDbDictionary
281
     1
  0
ACDBDICTIONARYWDFLT
  5
E
102
{ACAD_REACTORS
330
C
102
}
330
C
100
AcDbDictionary
281
     1
  3
Normal
350
F
100
AcDbDictionaryWithDefault
340
F
  0
DICTIONARY
  5
47
102
{ACAD_REACTORS
330
C
102
}
330
C
100
AcDbDictionary
281
     1
  3
A0
350
48
  3
A1
350
49
  3
A2
350
4A
  3
A3
350
4B
  3
A4
350
4C
  3
A5
350
4D
  3
A6
350
4E
  3
A7
350
4F
  3
A8
350
50
  3
A9
350
51
  3
B0
350
52
  3
B1
350
53
  3
B2
350
54
  3
B3
350
55
  3
B4
350
56
  3
B5
350
57
  3
B6
350
58
  0
XRECORD
  5
98
102
{ACAD_REACTORS
330
C
102
}
330
C
100
AcDbXrecord
280
     1
  1
DWGPROPS COOKIE
  2

  3

  4

  6

  7

  8
Alan Ramirez
  9

300
=
301
=
302
=
303
=
304
=
305
=
306
=
307
=
308
=
309
=
 40
0.0
 41
2460446.809028727
 42
2460446.809056238
  1

 90
        0
  0
LAYOUT
  5
1E
102
{ACAD_REACTORS
330
1A
102
}
330
1A
100
AcDbPlotSettings
  1

  2
none_device
  4

  6

 40
0.0
 41
0.0
 42
0.0
 43
0.0
 44
0.0
 45
0.0
 46
0.0
 47
0.0
 48
0.0
 49
0.0
140
0.0
141
0.0
142
1.0
143
1.0
 70
   688
 72
     1
 73
     0
 74
     5
  7

 75
    16
147
1.0
148
0.0
149
0.0
100
AcDbLayout
  1
Layout1
 70
     1
 71
     1
 10
0.0
 20
0.0
 11
420.0
 21
297.0
 12
0.0
 22
0.0
 32
0.0
 14
1.0000000000E+20
 24
1.0000000000E+20
 34
1.0000000000E+20
 15
-1.0000000000E+20
 25
-1.0000000000E+20
 35
-1.0000000000E+20
146
0.0
 13
0.0
 23
0.0
 33
0.0
 16
1.0
 26
0.0
 36
0.0
 17
0.0
 27
1.0
 37
0.0
 76
     0
330
1B
  0
LAYOUT
  5
26
102
{ACAD_REACTORS
330
1A
102
}
330
1A
100
AcDbPlotSettings
  1

  2
none_device
  4

  6

 40
0.0
 41
0.0
 42
0.0
 43
0.0
 44
0.0
 45
0.0
 46
0.0
 47
0.0
 48
0.0
 49
0.0
140
0.0
141
0.0
142
1.0
143
1.0
 70
   688
 72
     1
 73
     0
 74
     5
  7

 75
    16
147
1.0
148
0.0
149
0.0
100
AcDbLayout
  1
Layout2
 70
     1
 71
     2
 10
0.0
 20
0.0
 11
0.0
 21
0.0
 12
0.0
 22
0.0
 32
0.0
 14
0.0
 24
0.0
 34
0.0
 15
0.0
 25
0.0
 35
0.0
146
0.0
 13
0.0
 23
0.0
 33
0.0
 16
1.0
 26
0.0
 36
0.0
 17
0.0
 27
1.0
 37
0.0
 76
     0
330
23
  0
LAYOUT
  5
22
102
{ACAD_REACTORS
330
1A
102
}
330
1A
100
AcDbPlotSettings
  1

  2
none_device
  4
ANSI_A_(11.00_x_8.50_Inches)
  6

 40
6.35
 41
19.05
 42
6.35000508
 43
19.05000254
 44
279.4
 45
215.9
 46
133.3499543119
 47
50.1370786689
 48
0.0
 49
0.0
140
0.0
141
0.0
142
0.025223279
143
1.0
 70
  1696
 72
     0
 73
     0
 74
     0
  7

 75
     0
147
0.0179189148
148
-1300.4909072572
149
0.0
100
AcDbLayout
  1
Model
 70
     1
 71
     0
 10
0.0
 20
0.0
 11
420.0
 21
297.0
 12
0.0
 22
0.0
 32
0.0
 14
-200.1627579492
 24
-106.3065903607
 34
0.0
 15
200.1628926456
 25
227.3137930189
 35
0.0
146
0.0
 13
0.0
 23
0.0
 33
0.0
 16
1.0
 26
0.0
 36
0.0
 17
0.0
 27
1.0
 37
0.0
 76
     0
330
1F
331
29
  0
MLINESTYLE
  5
18
102
{ACAD_REACTORS
330
17
102
}
330
17
100
AcDbMlineStyle
  2
Standard
 70
     0
  3

 62
   256
 51
90.0
 52
90.0
 71
     2
 49
0.5
 62
   256
  6
BYLAYER
 49
-0.5
 62
   256
  6
BYLAYER
  0
ACDBPLACEHOLDER
  5
F
102
{ACAD_REACTORS
330
E
102
}
330
E
  0
SCALE
  5
48
102
{ACAD_REACTORS
330
47
102
}
330
47
100
AcDbScale
 70
     0
300
1:1
140
1.0
141
1.0
290
     1
  0
SCALE
  5
49
102
{ACAD_REACTORS
330
47
102
}
330
47
100
AcDbScale
 70
     0
300
1:2
140
1.0
141
2.0
290
     0
  0
SCALE
  5
4A
102
{ACAD_REACTORS
330
47
102
}
330
47
100
AcDbScale
 70
     0
300
1:4
140
1.0
141
4.0
290
     0
  0
SCALE
  5
4B
102
{ACAD_REACTORS
330
47
102
}
330
47
100
AcDbScale
 70
     0
300
1:5
140
1.0
141
5.0
290
     0
  0
SCALE
  5
4C
102
{ACAD_REACTORS
330
47
102
}
330
47
100
AcDbScale
 70
     0
300
1:8
140
1.0
141
8.0
290
     0
  0
SCALE
  5
4D
102
{ACAD_REACTORS
330
47
102
}
330
47
100
AcDbScale
 70
     0
300
1:10
140
1.0
141
10.0
290
     0
  0
SCALE
  5
4E
102
{ACAD_REACTORS
330
47
102
}
330
47
100
AcDbScale
 70
     0
300
1:16
140
1.0
141
16.0
290
     0
  0
SCALE
  5
4F
102
{ACAD_REACTORS
330
47
102
}
330
47
100
AcDbScale
 70
     0
300
1:20
140
1.0
141
20.0
290
     0
  0
SCALE
  5
50
102
{ACAD_REACTORS
330
47
102
}
330
47
100
AcDbScale
 70
     0
300
1:30
140
1.0
141
30.0
290
     0
  0
SCALE
  5
51
102
{ACAD_REACTORS
330
47
102
}
330
47
100
AcDbScale
 70
     0
300
1:40
140
1.0
141
40.0
290
     0
  0
SCALE
  5
52
102
{ACAD_REACTORS
330
47
102
}
330
47
100
AcDbScale
 70
     0
300
1:50
140
1.0
141
50.0
290
     0
  0
SCALE
  5
53
102
{ACAD_REACTORS
330
47
102
}
330
47
100
AcDbScale
 70
     0
300
1:100
140
1.0
141
100.0
290
     0
  0
SCALE
  5
54
102
{ACAD_REACTORS
330
47
102
}
330
47
100
AcDbScale
 70
     0
300
2:1
140
2.0
141
1.0
290
     0
  0
SCALE
  5
55
102
{ACAD_REACTORS
330
47
102
}
330
47
100
AcDbScale
 70
     0
300
4:1
140
4.0
141
1.0
290
     0
  0
SCALE
  5
56
102
{ACAD_REACTORS
330
47
102
}
330
47
100
AcDbScale
 70
     0
300
8:1
140
8.0
141
1.0
290
     0
  0
SCALE
  5
57
102
{ACAD_REACTORS
330
47
102
}
330
47
100
AcDbScale
 70
     0
300
10:1
140
10.0
141
1.0
290
     0
  0
SCALE
  5
58
102
{ACAD_REACTORS
330
47
102
}
330
47
100
AcDbScale
 70
     0
300
100:1
140
100.0
141
1.0
290
     0
  0
ENDSEC
  0
EOF
